Cifra Club

Vou Para o Alvo

DJ PV

Cifra: Principal (violão e guitarra)
Tom: C
F
Posso ouvir a sua voz nessa escuridão
C
Nos desafios dessa vida vou na contra mão
G                                    Dm
contigo sei que posso andar sobre as aguas
nao vou me afundar

F
E quanto mais eu eu me aproximo mais me sinto assim
C
tão tranquilo porque sinto Deus cuidar de mim
G                                   Dm
A tempestade turbulenta não me atrapalha
Estou seguro e

Am
Vou para o alvo vou
C
Nada me impedira
G
Sou mais que vencedor
Dm
Comigo Deus esta


E|---13-12-10----10~-13-12-10--------13-12-10-----------------|
B|------------13--------------13-10~----------13-8~----8------|
G|--------------------------------------------------10---10---|
D|------------------------------------------------------------|
A|------------------------------------------------------------|
E|------------------------------------------------------------|

E|------------------------------------------------------------|
B|---11-11-10-10-8-8------------------------------------------|
G|-------------------10-10-7~---------------------------------|
D|------------------------------------------------------------|
A|------------------------------------------------------------|
E|------------------------------------------------------------|

E|---13-12-10----10~-13-12-10--------13-12-10-----------------|
B|------------13--------------13-10~----------13-8~----8------|
G|--------------------------------------------------10---10---|
D|------------------------------------------------------------|
A|------------------------------------------------------------|
E|------------------------------------------------------------|

E|-------------------13-12----10~-----------------------------|
B|---11-11-10-10-8-8-------13---------------------------------|
G|------------------------------------------------------------|
D|------------------------------------------------------------|
A|------------------------------------------------------------|
E|------------------------------------------------------------|

F
A tua mão que me sustenta
C                 G
A tua voz me orienta
       Dm
Para onde eu vou, para onde eu vou
F
Tu e senhor do meu caminho
C                     G
senti nao sei andar sozinho
                Dm
Tu me guia, Tu me guia, Tu me guia
exibições 18.508
Acordes para:
    Colaboração e revisão:

    0 comentários

    mostrar mais comentários

    Conseguiu tocar?

    6 tocaram 0 ainda não

    Grave um vídeo tocando Vou Para o Alvo e mande pra gente!

    00:00 / 00:00
    outros vídeos desta música
    repetir qualidade Automático
    Outros vídeos desta música
    00:00 / 00:00
    Automático
    OK