Azayakana Hana

Do As Infinity

G|------------------------------------------------------------
D|--------------------3-3-2-2-0-----0-0---------3-3-2-2-0-----
A|------------0-0-3-3-----------3-------0-0-3-3-----------3---
E|---8/---1-1-------------------------------------------------

G|-------------------------------------------------------
D|---------------3-3-2-2-0-----0-0---------3-3-2-2-0-----
A|-------0-0-3-3-----------3-------0-0-3-3-----------3---
E|---1-1-------------------------------------------------

G|-----------------------------------------------
D|----------3----------5-------------------------
A|-------1/---------3/-----3-3---3-----3-3---3---
E|---1-1--------3-3------------3-----3-----3-----

G|-----------------------------------------------------12-10--------
D|----------3------------5----------7--7-9-10-9-7-9-10-------10-----
A|-------1/-----------3/---------5/-----------------------------8-8-
E|---1-1--------1-3-3--------5-5------------------------------------

G|---------------------5-4-4------------------------------------
D|---5-5-------------5-------5----------7-------------------3---
A|-------5-------3-3-----------5-----5/--------3---------1/-----
E|---------3---3-----------------5-5-------3-3---3---1-1--------

G|-------------------------------5-5-6-7-8-9/---
D|-----------5-----------------5----------------
A|--------3/-----3-3---3---3-3------------------
E|--1-3-3------------3--------------------------

G|------------------------------------------
D|-------14----------7-----------7-------14-
A|----------------5/----------5/------------
E|---0~------5-5--------/5-5--------�~----

G|------------------------------------------------------------
D|------------3---3-2-0-0---0--0----------5-------------------
A|---------1/-------------0------0-----3/------5--------------
E|----1-1-------------------------3-3-------3---3--3-3-3-3---

G|-----------------------------------------------------------------
D|------------3-5-----------------5----------3-5-------------------
A|---------1/---------0-0-2-3-3/5---------1/---------3-3---3----3--
E|----1-1--------3-------------------1-1--------3-------3----3----

G|----------------------------------------------------------
D|----------3-5----------------------3-5--------------------
A|-------1/-----------------------1/---------3-3---3----3---
E|---1-1-------1--5--3--1--1--1-1--------3-------3----3-----

G|-------------------------------------------------------
D|---------------3-3-2-2-0-----0-0---------3-3-2-2-0-----
A|-------0-0-3-3-----------3-------0-0-3-3-----------3---
E|---1-1-------------------------------------------------

G|-------------------------------------------------------
D|---------------3-3-2-2-0-----0-0---------3-3-2-2-0-----
A|-------0-0-3-3-----------3-------0-0-3-3-----------3---
E|---1-1-------------------------------------------------

G|-----------------------------------------5---
D|----------3----------5-----------------5-----
A|-------1/---------3/-----3-3---3---3-3-------
E|---1-1--------3-3------------3---------------

G|------------------------------------------------------12-10--------
D|----------3------------5-----------7--7-9-10-9-7-9-10-------10-----
A|-------1/-----------3/----------5/-----------------------------8-8-
E|--1-1--------1-3-3-------3-5-5------------------------------------

G|--------------------------5-4-4----------------------
D|-----------9------------5-------5----------7--7-9-10-
A|---8-10-10---10-----3-3-----------5-----5/-----------
E|------------------3-----------------5-5--------------

G|--------------------------------------------5-5-6-7-8-9/---
D|----------3------------5------------------5----------------
A|-------1/-----------3/-----3-3---3----3-3------------------
E|---1-1--------1-3-3------------3----3----------------------

G|-----------------------------------------
D|-------14---------7----7-7------------14-
A|---------------5/----7-----7-------------
E|---0~-----5-5---------------5------------

G|------------------------------------------------------------
D|------------3---3-2-0-0---0--0----------5-----5-------------
A|---------1/-------------0------0-----3/-----5---5-----------
E|----1-1-------------------------3-3--------------3-3-3-3----

G|-----------------------------------------------------------------
D|------------3-5-----------------5----------3-5-------------------
A|---------1/---------0-0-2-3-3/5---------1/---------3-3---3----3--
E|----1-1--------3-------------------1-1--------3-------3----3-----

G|----------------------------------------------------------
D|----------3-5----------------------3-5--------------------
A|-------1/-----------------------1/---------3-3---3----3---
E|---1-1-------1--5--3--1--1--1-1--------3-------3----3-----

G|-------------------------5---5-7/8-5-----5--------------
D|-------14---------7--5-7---7----------7-5---7------14---
A|---------------5/---------------------------------------
E|---0~-----5-5---------------------------------0~--------

G|-----------------------------------------------------------------4-------------------------
D|------------3---3-2-0-0---0--0----------5-----------------5--5-7---5-5---5---5-------------
A|---------1/-------------0------0-----3/-------0-2------3/--------------5---5---5-----------
E|----1-1-------------------------3-3--------3------3-3---------------------------3-3-3-3----

G|-----------------------------------------------------------------
D|------------3-5-----------------5----------3-5-------------------
A|---------1/---------0-0-2-3-3/5---------1/---------3-3---3----3--
E|----1-1--------3-------------------1-1--------3-------3----3-----

G|----------------------------------------------------------------
D|----------3-5----------------------3-5-----------3/5-5/10-/-----
A|-------1/-----------------------1/-----------3-3----------------
E|---1-1-------1--5--3--1--1--1-1--------3---3--------------------

G|---------------------------------------------------------------------
D|------------3------------------5----------3-5---------------------5--
A|---------1/--------0-0-2-3-3/5---------1/-----------3-3---3--3-3/----
E|----1-1------1--------------------1-1--------3---3-----3-------------

G|----------------------------------------------------------
D|----------3-5----------------------3-5--------------------
A|-------1/-----------------------1/-----------3-3---3/15---
E|---1-1-------1--5--3--1--1--1-1--------3---3-----3--------

G|-------------------------------------------------------
D|---------------3-3-2-2-0-----0-0---------3-3-2-2-0-----
A|-------0-0-3-3-----------3-------0-0-3-3-----------3---
E|---1-1-------------------------------------------------

G|----------------------------------------------------5h7p5-
D|---------------3-3-2-2-0------0-0---------3-3-2-5-7-------
A|-------0-0-3-3-----------3--3-----0-0-3-3-----------------
E|---1-1----------------------------------------------------

G|-------------------------------------------------------
D|---------------3-3-2-2-0-----0-0---------3-3-2-2-0-----
A|-------0-0-3-3-----------3-------0-0-3-3-----------3---
E|---1-1-------------------------------------------------

G|--------------------------------------------------------
D|---------------3-3-2-2-0------0-0---------3-3-2-2-0-----
A|-------0-0-3-3-----------3--3-----0-0-3-3-----------3---
E|---1-1--------------------------------------------------

G|-------------------
D|-------------------
A|-------------------
E|----0~~~~-/-11~----
Página 1 / 1

Letras e título
Acordes e artista

resetar configurações
OK