Cifra Club

Aprenda

Tiramisu

Dogwood

Cifra: Principal (violão e guitarra)
tom: G
|ntro
|-----------------------------------------------------------------|
|-----------------------------------------------------------------|
|-----------------------------------------------------------------|
|-7-7-10-10-9-9-5-5---7-7-10-10-9-9-12-12---7-7-10-10-9-9-5-5-3-3-| 2x Palm
|-----------------------------------------------------------------| Mute First
|-----------------------------------------------------------------| Time

|------------------------------------------------------------------|
|------------------------------------------------------------------|
|------------------------------------------------------------------|
|--7-7-10-10-9-9-5-5---7-7-10-10-9-9-12-12---7-7-10-10-9-9-5-5-3-3-| 2x
|--7-7-10-10-9-9-5-5---7-7-10-10-9-9-12-12---7-7-10-10-9-9-5-5-3-3-|
|--7-7-10-10-9-9-5-5---7-7-10-10-9-9-12-12---7-7-10-10-9-9-5-5-3-3-|

Verse
|------------------------------------------------------------------|
|------------------------------------------------------------------|
|------------------------------------------------------------------|
|--7-7-7-7--10-10-10-10--5-5-5-5--3-2------------------------------| 4x
|--7-7-7-7--10-10-10-10--5-5-5-5--3-2------------------------------|
|--7-7-7-7--10-10-10-10--5-5-5-5--3-2------------------------------|
                                  * *

|------------------------------------------------------------------|
|------------------------------------------------------------------|
|------------------------------------------------------------------|
|--7-7-10-10-9-9-5-5---7-7-10-10-9-9-12-12---7-7-10-10-9-9-5-5-3-3-| 2x
|--7-7-10-10-9-9-5-5---7-7-10-10-9-9-12-12---7-7-10-10-9-9-5-5-3-3-|
|--7-7-10-10-9-9-5-5---7-7-10-10-9-9-12-12---7-7-10-10-9-9-5-5-3-3-|

Part with Bass
|------------------------------------------------------------------|
|------------------------------------------------------------------|
|------------------------------------------------------------------|
|--7~------10-10-10--9-9-9---7-------------------------------------| 2x
|--7~------10-10-10--9-9-9---7-------------------------------------|
|--7~------10-10-10--9-9-9---7-------------------------------------|
            *  *     * *

|------------------------------------------------------------------|
|------------------------------------------------------------------|
|------------------------------------------------------------------|
|--7-7-7-7--10-10-10-10--12-12-12-12--10-10-10--9-9-9--------------|
|--7-7-7-7--10-10-10-10--12-12-12-12--10-10-10--9-9-9--------------|
|--7-7-7-7--10-10-10-10--12-12-12-12--10-10-10--9-9-9--------------|
                                       *  *     * *

End With...
|------------------------------------------------------------------|
|------------------------------------------------------------------|
|------------------------------------------------------------------|
|--7-7-10-10-9-9-5-5---7-7-10-10-9-9-12-12---7-7-10-10-9-9-5-5-3-3-| 2x
|--7-7-10-10-9-9-5-5---7-7-10-10-9-9-12-12---7-7-10-10-9-9-5-5-3-3-|
|--7-7-10-10-9-9-5-5---7-7-10-10-9-9-12-12---7-7-10-10-9-9-5-5-3-3-|
Composição de Dogwood
Colaboração e revisão:
  • Tulio Anderson
35 exibições
    • ½ Tom
    • A
    • Bb
    • B
    • C
    • Db
    • D
    • Eb
    • E
    • F
    • F#
    • G
    • Ab
  • Adicionar à lista

    0 comentários

    Ver todos os comentários

    Conseguiu tocar?

    0 Tocaram 0 Ainda não

    Grave um vídeo tocando Tiramisu e nos envie!

    00:00 / 00:00
    outros vídeos desta música
    repetir qualidade Automático
    Outros vídeos desta música
    00:00 / 00:00
    Automático

    Cifra Club Pro

    Aproveite o Cifra Club com benefícios exclusivos e sem anúncios
    Cifra Club Pro
    Aproveite o Cifra Club com benefícios exclusivos e sem anúncios
    OK