Cifra Club

Aprenda

Dream Warriors

Dokken

Tab de baixo: Principal
++++++++++++++++++++++++++++++++++++++++++++++++++++++++++++++++++++++++++++++++
++++++++++++++++++++++++++++++++++++++++++++++++++++++++++++++++++++++++++++++++

Best song EVER


F#||------------------|------------------|------------------|------------------|
C#||------------------|------------------|------------------|------------------|
G#||------------------|------------------|------------------|------------------|
D#||------------------|------------------|------------------|------------------|


                                                             
------------------|------------------|----------------------|
------------------|------------------|----------------------|
------------------|------------------|----------0--0--0--0--|
------------------|------------------|----------------------|


                                                                             
--------------------------|---------------------------|---------------------|
--------------------------|---------------------------|---------------------|
--0--0--0--0--0--0--0--0--|--0--0--0--0--0--10--5--3--|--3--5--5------------|
--------------------------|---------------------------|---------------------|


                                                                             
----------------------|--------------------------|--------------------------|
--7-------------------|--------------------------|--------------------------|
---------5------0---0-|--0--0--0--0--0--0--0--0--|--0--0--0--0--0--0--0--0--|
----------------------|--------------------------|--------------------------|


                                                      
--------------------------|--------------------------|
--------------------------|--------------------------|
--0--0--0--0--0--0--0--xs-|--3--3--5--5--5--5--0--0--|
-----------------------xs-|--------------------------|


                                                      
--------------------------|--------------------------|
--------------------------|--------------------------|
--0--0--0--0--0--0--0--0--|--0--0--0--0--0--0--0--0--|
--------------------------|--------------------------|


                                                       
---------------------------|--------------------------|
---------------------------|--------------------------|
--0--0--0--0--0--0---------|--3--3--5--5--5--5--5--3--|
--------------------10/-0--|--------------------------|


                                                      
--------------------------|--------------------------|
--------------------------|--------------------------|
--0--0--0--0--0--0--0--0--|--0--0--0--0--0--0--0--0--|
--------------------------|--------------------------|


                                                      
--------------------------|--------------------------|
--------------------------|--------------------------|
--0--0--0--0--0--0--0--0--|--3--3--3--3--5--5--5--5--|
--------------------------|--------------------------|


                                                      
--------------------------|--------------------------|
--------------------------|--------------------------|
--0--0--0--0--0--0--0--0--|--0--0--0--0--0--0--0--0--|
--------------------------|--------------------------|


                                                      
--------------------------|--------------------------|
--------------------------|--------------------------|
--0--0--0--0--0--0--0--0--|--3--3--5--5--5--5--5--5--|
--------------------------|--------------------------|


                                                      
--------------------------|--------------------------|
--------------------------|--------------------------|
--0--0--0--0--0--0--0--0--|--0--0--0--0--0--0--0--0--|
--------------------------|--------------------------|


                                                      
--------------------------|--------------------------|
--------------------------|--------------------------|
--0--0--0--0--0--0--0--0--|--3--3--5--5--5--5--5--5--|
--------------------------|--------------------------|


                                                      
--------------------------|--------------------------|
--------------------------|--------------------------|
--0--0--0--0--0--0--0--0--|--0--0--0--0--0--0--0--0--|
--------------------------|--------------------------|


                                                      
--------------------------|--------------------------|
--------------------------|--------------------------|
--------------------------|--------------------------|
--0--0--0--0--0--0--1h-0--|--0--0--0--0--0--0--0--0--|


                                                      
--------------------------|--------------------------|
--------------------------|--------------------------|
--------------------------|--------------------2h-0--|
--0--0--0--0--0--0--0--0--|--3--3--3--3--4--4--------|


                                                      
--------------------------|--------------------------|
--------------------------|-----------------------3--|
--0--0--0--0--0--0--------|--------------------------|
--------------------0--1--|--1--1--0--3--3--3--3-----|


                                                      
--------------------------|--------------0--0--------|
-----------3--------------|--------------------------|
--------------3-----------|--------------------2h-0--|
--1--1--1--------3--1--3--|--3--3--3--3--------------|


                                                                                
--------------------------|--------------------------|-----------0--0----0-----|
--------------------------|-----------------------3--|--3--3--3-------------0--|
--0--0--0--0--0--0--------|--------------------------|-------------------------|
--------------------0--1--|--1--1--0--3--3--3--3-----|-------------------------|


                                                                                
--------------------------|--------------------------|-------------------------|
--------------------------|--------------------------|-------------------------|
--3--3--0-----------------|--0--0--0--0--0--0--------|-------------------------|
-----------3--3--3--3--4--|--------------------0--1--|--1--0--3--3--3--3----0--|


                                                      
--------------------------|--------------------------|
--------------------------|--------------------------|
--0--0--0--0--0--0--0--0--|--0--0--0--0--0--0--0--0--|
--------------------------|--------------------------|


                                                      
--------------------------|--------------------------|
--------------------------|--------------------------|
--0--0--0--0--0--0--0--0--|--3--3--3--5--5--5--5--5--|
--------------------------|--------------------------|


                                                      
--------------------------|--------------------------|
--------------------------|--------------------------|
--0--0--0--0--0--0--0--0--|--0--0--0--0--0--0--0--0--|
--------------------------|--------------------------|


                                                      
--------------------------|--------------------------|
--------------------------|--------------------------|
--0--0--0--0--0--0--0--0--|--3--3--5--5--5--5--5--3--|
--------------------------|--------------------------|


                                                      
--------------------------|--------------------------|
--------------------------|--------------------------|
--0--0--0--0--0--0--0--0--|--0--0--0--0--0--0--0--0--|
--------------------------|--------------------------|


                                                      
--------------------------|--------------------------|
--------------------------|--------------------------|
--0--0--0--0--0--0--0--0--|--3--3--3--5--5--5--5--5--|
--------------------------|--------------------------|


                                                      
--------------------------|--------------------------|
--------------------------|--------------------------|
--0--0--0--0--0--0--0--0--|--0--0--0--0--0--0--0--0--|
--------------------------|--------------------------|


                                                      
--------------------------|--------------------------|
--------------------------|--------------------------|
--------------------------|--------------------------|
--0--0--0--0--0--0--0--0--|--0--0--0--0--0--0--0--0--|


                                                      
--------------------------|--------------------------|
--------------------------|--------------------------|
-----------------------0--|--------------------------|
--0--0--0--0--0--0--0-----|--3--3--3--3--4--4--4h-5--|


                                                      
--------------------------|--------------------------|
--------------------------|-----------------------3--|
--0--0--0--0--0--0--------|--------------------------|
--------------------0--1--|--1--1--0--3--3--3--3-----|


                                                      
--------------------------|--------------------------|
--------------------------|--------------------------|
--------------------------|--------------------2h-0--|
--1--1--1--1--1--3--0--3--|--3--3--3--3--3--3--------|


                                                      
--------------------------|--------------------------|
--------------------------|-----------------------3--|
--0--0--0--0--0--0--------|--------------------------|
--------------------0--1--|--1--1--0--3--3--3--3-----|


                                                      
--------------------------|--------------------------|
--3--3--3--3--3--3--3-----|--------------------------|
-----------------------0--|--3--3--0-----------------|
--------------------------|-----------3--3--3--3h-5--|


                                                      
--------------------------|--------------------------|
--------------------------|--------------------3--3--|
--0--0--0--0--0--0--------|--------------------------|
--------------------0--1--|--1--1--0--3--3--3--------|


                                                      
--------------------------|--------------------------|
-----------3--3-----------|--------------------------|
--------------------------|--------------------------|
--1--1--1--------3--0--3--|--3--3--3--3--3--3--3--3--|


                                                      
--------------------------|--------------------------|
--------------------x--x--|--------------------------|
--------------------x--x--|--------------------2h-0--|
--1--1--1--1--1--1--------|--3--3--3--3--4--4--------|


                                                      
--------------------------|--------------------------|
--------------------------|--------------------------|
--0--0--0--0--0--0--0--0--|--------------------0--3--|
--------------------------|--1--1--1--1--1--1--------|


                                                      
--------------------------|--------------------------|
--------------------------|--------------------------|
--3--3--3--3--3--3--0-----|-----------------------0--|
-----------------------0--|--3--3--3--3--3--3--3-----|


                                                      
--------------------------|--------------------------|
--------------------------|--------------------0--0--|
--0--0--0--0--0-----0-----|--------------------------|
-----------------0-----0--|--1--1--1--1--1--1--------|


                                                      
--------------------------|--------------------------|
--0--0--------0--0--0-----|--------------------------|
--------0--0--------------|--------------------2--0--|
-----------------------0--|--3--3--3--3--4--4--------|


                                                      
--------------------------|--------------------------|
--------------------0-----|--------------------------|
--0--0--0--0--0--0--------|--------------------0h-3--|
-----------------------1--|--1--1--1--1--1--1--------|


                                                      
--------------------------|--------------------------|
-----------5--5--5--------|--------------------------|
--3--3--3-----------0-----|--------0--2--2--2--0--0--|
-----------------------3--|--3--3--------------------|


                                                      
--------------------------|--------------------------|
--------2-----------------|--------------------------|
--0--0-----0--0--0--0-----|--------0-----------------|
-----------------------1--|--1--1-----3--3--3--3--3--|


                                                        
--------------------------|----------------------------|
--------------------------|----------------------------|
--3--3--3--2--2--0--------|--0--0--0--2-0-0--0---------|
--------------------3--3--|--------------------3-3--3--|


                                                      
--------------------------|--------------------------|
--------------------------|--------------------------|
--3--------2--------3-----|--3--------2--------3-----|
-----1--1-----1--1-----1--|-----1--1-----1--1-----1--|


                                                      
--------------------------|--------------------------|
--------------------------|--------------------------|
--3--------2--------3-----|--------------------------|
-----3--3-----3--3-----0--|--3--3--3--3--3--3--3--1--|


                                                      
--------------------------|--------------------------|
--------------------------|--------------------------|
--3--------2--------3-----|--3--------2--------3-----|
-----1--1-----1--1-----1--|-----1--1-----1--1-----1--|


                                                      
--------------------------|--------------------------|
--------------------------|--------------------------|
--3--------2--------3-----|--------------------2h-0--|
-----3--3-----3--3-----0--|--3--3--3--3--4--4--------|


                                                      
--------------------------|--------------------------|
--------------------------|-----------------------3--|
--0--0--0--0--0--0--------|--------------------------|
--------------------0--1--|--1--1--0--3--3--3--3-----|


                                                      
--------------------------|--------------------------|
--------------------------|--------------------------|
--------------------------|--------------------2h-0--|
--1--1--1--1--1--3--0--3--|--3--3--3--3--3--3--------|


                                                      
--------------------------|--------------------------|
--------------------------|-----------------------3--|
--0--0--0--0--0--0--------|--------------------------|
--------------------0--1--|--1--1--0--3--3--3--3-----|


                                                      
--------------------------|--------------------------|
--3--3--3--3--3--3--3-----|--------------------------|
-----------------------0--|--3--3--0-----------------|
--------------------------|-----------3--3--3--3h-5--|


                                                      
--------------------------|--------------------------|
--------------------------|-----------------------3--|
--0--0--0--0--0--0--------|--------------------------|
--------------------0--1--|--1--1--0--3--3--3--3-----|


                                                      
-----------0--0-----------|--------------------------|
--------3-----------------|--------------------------|
--------------------------|--------------------2h-0--|
--1--1-----------3--0--3--|--3--3--3--3--3--3--------|


                                                      
--------------------------|--------------------------|
--------------------------|-----------------------3--|
--------------------------|--------------------------|
--1--1--1--1--1--1--0--1--|--1--1--0--3--3--3--3-----|


                                                      
--------------------------|--------------------------|
--3--3--3--3--3--3--3-----|--------------------------|
-----------------------0--|--3--3--0-----------------|
--------------------------|-----------3--3--3--3--3--|


                                                      
--------------------------|--------------------------|
--------------------------|--------------------3--3--|
--0--0--0--0--0--0--------|--------------------------|
--------------------0--1--|--1--0--3--3--3--3--------|


                                                      
--------------------------|--------------------------|
-----------3--3-----------|--------------------------|
--------------------------|--------------------2--0--|
--1--1--1--------3--0--3--|--3--3--3--3--3--3--------|


                                                                               
--------------------------|--------------------------|-----------0------0-----|
--------------------------|--------------------3--3--|--3--3--3------------0--|
--0--0--0--0--0--0--------|--------------------------|------------------------|
--------------------0--1--|--1--1--0--3--3--3--------|------------------------|


                                                      
--------------------------|--------------------------|
--------------------------|--------------------------|
--3--3--0-----------3--3--|--0--0--0--0--0--0--------|
-----------3--3--3--------|--------------------0--1--|


                                                      
--------------------------|--------------------------|
--------------------3--3--|-----------3--3-----------|
--------------------------|--------------------------|
--1--0--3--3--3--3--------|--1--1--1--------3--0--3--|


                                                      
--------------------------|--------------------------|
--------------------------|--------------------------|
--------------------2--0--|--0--0--0--0--0--0--------|
--3--3--3--3--3--3--------|--------------------0--1--|


                                                                               
--------------------------|-----------0------0-----|--------------------------|
--------------------3--3--|--3--3--3------------0--|--------------------------|
--------------------------|------------------------|--3--3--0-----------3--3--|
--1--1--0--3--3--3--------|------------------------|-----------3--3--3--------|


                     
-------------------||
-------------------||
--0----------------||
-------------------||
Composição de Dokken
257 exibições

0 comentários

Mostrar mais comentários

Conseguiu tocar?

0 Tocaram 0 Ainda não

Grave um vídeo tocando Dream Warriors e mande pra gente!

00:00 / 00:00
outros vídeos desta música
repetir qualidade Automático
Outros vídeos desta música
00:00 / 00:00
Automático

Cifra Club Pro

Aproveite o Cifra Club com benefícios exclusivos e sem anúncios
7 dias grátis
Cifra Club Pro
Aproveite o Cifra Club com benefícios exclusivos e sem anúncios
7 dias grátis
OK