O Cortador de Cana

Dominguinhos

Composição: Dominguinhos / Tarcisio Acioli
Tom: Eb
[Intro] Eb
        G  Cm
        G  Cm
        G  Cm
        Bb  Eb

                   Eb
E|-11-9-8----------9--8--------9-8-------------------|
B|---------11-8-11------11-8-------11-8---8-11--9-8--|
G|--------------------------------------8-----------8|
D|---------------------------------------------------| (2x)
A|---------------------------------------------------|
E|---------------------------------------------------|
               G    Cm              G   Cm  
E|-6-4-3-------3----------------3-4-3----------------|
B|-------6-4-6----6-4-----3-4-6-------6-4------------|
G|----------------------5-----------------5----------|
D|---------------------------------------------------|
A|---------------------------------------------------|
E|---------------------------------------------------|

               G    Cm              Bb      Eb 
E|-6-4-3-------3----------------3-4-6---4-3----------|
B|-------6-4-6----6-4-----3-4-6-------------4--------|
G|----------------------5----------------------------|
D|---------------------------------------------------|
A|---------------------------------------------------|
E|---------------------------------------------------|

         Bb         Eb
Se despediu da família
          Bb      Eb
Sorrindo sem alegria
     Bb          Eb
Assubiu no caminhão
          Bb            Ab   Eb
Dizendo adeus num inté lo---go

          Bb        Eb
Sofrendo peito sem ódio
    Bb          Eb
Acenou com uma mão
            Bb     Eb
E se foi estrada afora
      Bb          Eb
Como todo pau de arara
          Bb    Ab   Eb
Em busca de empre---go

          Bb        Eb
Foi prás bandas do sul
               Bb   Eb
Com uma turma da ribeira
        Bb        Eb
Cortar cana açucareira
        Bb    Ab  Eb
Pra ganhar o pã---o

                        Bb
Uma "quaquinha" nas costas
              Eb
Uma foice na mão
                    Bb
Chapéu sambado de palha
                   Eb
De pé descalço no chão
                     Bb
Cigarro de corda no bico
                    Eb
Uma velha roupa rasgada
                 Bb
Farinha seca no bucho
                Ab    Eb
Caminha pela estra---da

      Ab     Eb
Cortador de cana
           Ab         Eb
Prepara o foice pra guerra
            Bb         Eb
Mostra o valor destas terras
           Bb     Eb
De homem cabra danado

      Ab     Eb
Cortador de cana
         Ab       Eb
Orgulho de uma família
        Bb       Eb
Braço forte maravilha
        Bb       Ab   Eb
Desta usina da gen---te

[Final] Eb
        G  Cm
        G  Cm
        G  Cm
        Bb  Eb

                   Eb
E|-11-9-8----------9--8--------9-8-------------------|
B|---------11-8-11------11-8-------11-8---8-11--9-8--|
G|--------------------------------------8-----------8|
D|---------------------------------------------------| (2x)
A|---------------------------------------------------|
E|---------------------------------------------------|
               G    Cm              G   Cm  
E|-6-4-3-------3----------------3-4-3----------------|
B|-------6-4-6----6-4-----3-4-6-------6-4------------|
G|----------------------5-----------------5----------|
D|---------------------------------------------------|
A|---------------------------------------------------|
E|---------------------------------------------------|

               G    Cm              Bb      Eb 
E|-6-4-3-------3----------------3-4-6---4-3----------|
B|-------6-4-6----6-4-----3-4-6-------------4--------|
G|----------------------5----------------------------|
D|---------------------------------------------------|
A|---------------------------------------------------|
E|---------------------------------------------------|
Página 1 / 1

Letras e título
Acordes e artista

resetar configurações
OK