Cifra Club

Aprenda

Dia da Árvore

Domínio Público

Cifra: Principal (violão e guitarra)
Tom: Bb
Vou uma árvore plantar e dela vou cuidar 
E|-3---1---0----3--1-----1---0---3---0---|  
B|-----------------------------3---------|
G|---------------------------------------|
D|-----------------------João Terranova--|
A|---------------------------------------|
E|---------------------------------------|

E quando eu crescer muitos frutos vou ter pra compartilhar
E|-3----1------0----3----5---3---1-----1---0---0-----------|
B|------------------------------------------------1----3---|
G|---------------------------------------------------------|
D|---------------------------------------------------------|
A|---------------------------------------------------------|
E|---------------------------------------------------------|

Quero uma jaqueira sim ii! Quero um jacarandá á á   
E|-3---1--0---3--5---1--1--1--1-0---3--1--0---0----|  
B|--------------------------------3----------------|
G|-------------------------------------------------|
D|-------------------------------------------------|
A|-------------------------------------------------|
E|-------------------------------------------------|

E quando eu crescer muita sombra vou ter para descansar 
E|--3----1---0----3----5---3---1---1---0----0---------|
B|----------------------------------------3----1------|
G|----------------------------------------------------|
D|----------------------------------------------------|
A|----------------------------------------------------|
E|--------------------------------------------------|
Colaboração e revisão:
  • JOÃO TERRANOVA
58 exibições
    • ½ Tom
    • A
    • Bb
    • B
    • C
    • Db
    • D
    • Eb
    • E
    • F
    • F#
    • G
    • Ab
  • Adicionar à lista

    0 comentários

    Mostrar mais comentários

    Conseguiu tocar?

    0 Tocaram 0 Ainda não

    Grave um vídeo tocando Dia da Árvore e mande pra gente!

    00:00 / 00:00
    outros vídeos desta música
    repetir qualidade Automático
    Outros vídeos desta música
    00:00 / 00:00
    Automático

    Cifra Club Pro

    Aproveite o Cifra Club com benefícios exclusivos e sem anúncios
    Cifra Club Pro
    Aproveite o Cifra Club com benefícios exclusivos e sem anúncios
    OK