Cifra Club

Butterfly

Donavon Frankenreiter

Cifra: Principal
exibições 24.980
Tom: C
intro
Violão 1
       C7+             G/B             C7+
e|--------3-----|---3-----3-----|--3-----3-------|
B|----------5---|-----3-----3---|----5-----5-----|
G|------4-----0-|-------0-----0-|------4-----4---|
D|----5---------|---------------|----------------|
A|--3-----3-----|---2-----2-----|--3-----3-------|
E|--------------|---------------|----------------|

Violão 2
e|------2h3--------|---------------|*
B|-----------3h5-3-|---------5-6/8-|*
G|--0h2------------|---------------|*
D|-----------------|---------------|*
A|-----------------|---------------|*
E|-----------------|---------------|*

Violão 1

     C         G/B        C        G/B
e|---------|---------|---------|---------|*
B|--1---1--|--3---3--|--1---1--|--3---3--|*
G|----0----|----0----|----0----|----0----|*
D|---------|---------|---------|---------|*
A|--3---3--|--2---2--|--3---3--|--2---2--|*
E|---------|---------|---------|---------|*

Violão 2
e|---10-8-7-5-3---|*
B|----------------|*
G|---10-9-7-5-4---|*
D|----------------|*
A|----------------|*
E|----------------|*

Violão 1
    Em        C       G/B         C
e|---------|--------|--------|--------|
B|--0---0--|--1--1--|--3--3--|--1--1--|
G|--0---0--|--0--0--|--0--0--|--0--0--|
D|---------|--------|--------|--------|2x
A|--2-2----|--3-----|--2-----|--3-----|
E|---------|--------|--------|--------|

Violão 2
e|-----------------|-----------------|*
B|--7h8------------|------------10p8-|*
G|-----------------|-----------------|*
D|-7---------------|-----------------|*
A|-----------------|-----------------|*
E|-----------------|---------7*------|*



riff 1
Violão 1
    Em        C       G/B         C
e|---------|--------|--------|--------|
B|--0---0--|--1--1--|--3--3--|--1--1--|
G|--0---0--|--0--0--|--0--0--|--0--0--|
D|---------|--------|--------|--------|
A|--2-2----|--3-----|--2-----|--3-----|
E|---------|--------|--------|--------|
Violão2
    Em       C       G/B      C
e|--------|--------|--------|--------|*
B|--------|--------|--------|--------|*
G|--------|--------|--------|--------|*
D|-9------|-10-----|-12-----|-10-----|*
A|-7------|-10-----|-10-----|-10-----|*
E|-7------|-8------|-10-----|-8------|*
If the road I travel goes bad
If the life I live becomes the life I had
I close my eyes and I dream
Of my butterfly coming down to rescue me

riff2
violão 1
       C7+             G/B             C7+
e|--------3-----|---3-----3-----|--3-----3-------|
B|----------5---|-----3-----3---|----5-----5-----|
G|------4-----0-|-------0-----0-|------4-----4---|
D|----5---------|---------------|----------------|
A|--3----3------|---2-----2-----|--3-----3-------|
E|--------------|---------------|----------------|

Violão 2
        C7+                G/B            C7+
e|------2h3------------|---------------|--------------|*
B|----------3h5-3------|-----5-6/8-----|-----8/10-----|*
G|--0h2----------------|---------------|--------------|*
D|---------------------|---------------|--------------|*
A|---------------------|---------------|--------------|*
E|---------------------|---------------|--------------|*
She's my butterfly, Yeah she's my butterfly

      C        G/B        C        G/B       Em
e|---------|---------|---------|---------|---------|
B|--1---1--|--3---3--|--1---1--|--3---3--|--0-0-0--|
G|----0----|----0----|----0----|----0----|--0-0-0--|
D|---------|---------|---------|---------|---------|
A|--3---3--|--2---2--|--3---3--|--2---2--|--0-2-2--|
E|---------|---------|---------|---------|---------|

riff1
If the wind that guides you pulls you away
If the words that love you ever ask you to stay
I still close my eyes and I dream
Of my butterfly coming back to rescue me


riff3
violão 1
       C7+             G/B             C7+
e|--------3-----|---3-----3-----|--3-----3-------|
B|----------5---|-----3-----3---|----5-----5-----|
G|------4-----0-|-------0-----0-|------4-----4---|
D|----5---------|---------------|----------------|
A|--3-----3-----|---2-----2-----|--3-----3-------|
E|--------------|---------------|----------------|

violão 2
        C7+                G/B            C7+
e|------2h3------------|-----------------|--------------|*
B|----------3h5-3------|-----3/5-6/8-----|-----8/10-----|*
G|--0h2----------------|-----------------|--------------|*
D|---------------------|-----------------|--------------|*
A|---------------------|-----------------|--------------|*
E|---------------------|-----------------|--------------|*
She's my butterfly, Yeah she's my butterfly

violão 1
     C        G/B       C        G/B       
e|---------|--------|---------|--------|
B|--1---1--|--3--3--|--1---1--|--3--3--|
G|----0----|--0--0--|----0----|--0--0--|
D|---------|--------|---------|--------|
A|--3---3--|--2-----|--3---3--|--2-----|
E|---------|--------|---------|--------|
Don't you know that

violão 1
        C7+             G/B             C7+
e|--------3-----|---3-----3-----|--3-----3-------|
B|----------5---|-----3-----3---|----5-----5-----|
G|------4-----0-|-------0-----0-|------4-----4---|
D|----5---------|---------------|----------------|
A|--3-----3-----|---2-----2-----|--3-----3-------|
E|--------------|---------------|----------------|

violão 2
        C7+
e|------2h3------------|*
B|----------3h5-3------|*
G|--0h2----------------|*
D|---------------------|*
A|---------------------|*
E|---------------------|*
She's my butterfly, I said she's my butterfly

violão 1
     C        G/B       C        G/B       
e|---------|--------|---------|--------|
B|--1---1--|--3--3--|--1---1--|--3--3--|
G|----0----|--0--0--|----0----|--0--0--|
D|---------|--------|---------|--------|
A|--3---3--|--2-----|--3---3--|--2-----|
E|---------|--------|---------|--------|


riff4
violão1
           Em                    C                      Em              C
e|---------------------|--------------------|------------------------|--0--|
B|--0-0--0-0--0-0--0-0-|-1-1--1-1--1-1--1-1-|--0-0-0--0-0---0-0--0-0-|--1--|
G|--0-0--0-0--0-0--0-0-|-0-0--0-0--0-0--0-0-|--0-0-0--0-0---0-0--0-0-|--0--|
D|---------------------|--------------------|------------------------|--2--|
A|--2-2--2----2----2---|-3-3--3----3----3---|--x-2-2--2---x-2-2--2---|--3--|
E|---------------------|--------------------|------------------------|--x--|

violão2
solo
e|--3/7---10/5-5/3--3/5/3--2/3--3/5--5/10-|*
B|----------------------------------------|*
G|----------------------------------------|*
D|----------------------------------------|*
A|----------------------------------------|*
E|----------------------------------------|*

riff5
violão 1
       C7+             G/B             C7+
e|--------3-----|---3-----3-----|--3-----3-------|
B|----------5---|-----3-----3---|----5-----5-----|
G|------4-----0-|-------0-----0-|------4-----4---|
D|----5---------|---------------|----------------|
A|--3-----3-----|---2-----2-----|--3-----3-------|
E|--------------|---------------|----------------|

violão2
        C7+                G/B            C7+
e|------2h3------------|---------------|--------------|
B|----------3h5-3------|-----5-6/8-----|-----8/10-----|
G|--0h2----------------|---------------|--------------|
D|---------------------|---------------|--------------|
A|---------------------|---------------|--------------|
E|---------------------|---------------|--------------|
She's my butterfly, Yeah she's my butterfly

violão 1
     C        G/B
e|---------|--------|
B|--1---1--|--3--3--|
G|----0----|--0--0--|
D|---------|--------|
A|--3---3--|--2-----|
E|---------|--------|

violão 1
        C7+             G/B             C7+
e|--------3-----|---3-----3-----|--3-----3-------|
B|----------5---|-----3-----3---|----5-----5-----|
G|------4-----0-|-------0-----0-|------4-----4---|
D|----5---------|---------------|----------------|
A|--3-----3-----|---2-----2-----|--3-----3-------|
E|--------------|---------------|----------------|

violão2
        C7+                G/B
e|------2h3------------|---------------|
B|----------3h5-3------|-----5-6/8-----|
G|--0h2----------------|---------------|
D|---------------------|---------------|
A|---------------------|---------------|
E|---------------------|---------------|
She's my butterfly, butterfly

Violão 1
     C        G/B       C        G/B     G/B  
e|---------|--------|---------|--------|---3--|
B|--1---1--|--3--3--|--1---1--|--3--3--|---3--|
G|----0----|--0--0--|----0----|--0--0--|---0--|
D|---------|--------|---------|--------|---0--|
A|--3---3--|--2-----|--3---3--|--2-----|-0-2--|
E|---------|--------|---------|--------|---x--|

violão2
        C7+                G/B
e|---10-8-7-5-3-----|----2-2/3------|
B|------------------|---------------|
G|---10-9-7-5-4-----|---------------|
D|------------------|---------------|
A|------------------|---------------|
E|------------------|---------------|
Acordes para:
    Composição: Donavon FrankenreiterColaboração e revisão:
    • Fernando Menezes

    0 comentários

      mostrar mais comentários

      Conseguiu tocar?

      0tocaram0ainda não

      Grave um vídeo tocando Butterfly e mande pra gente!

      00:00 / 00:00
      outros vídeos desta música
      repetirqualidadeautomática
      Outro vídeos desta música
        00:00 / 00:00
        automática
        OK