Notificações Amigos pendentes

      Donavon Frankenreiter

      Butterfly

      24.622 exibições
      Tom: C
      intro
      Violão 1
             C7+             G/B             C7+
      
      e|--------3-----|---3-----3-----|--3-----3-------|
      B|----------5---|-----3-----3---|----5-----5-----|
      G|------4-----0-|-------0-----0-|------4-----4---|
      D|----5---------|---------------|----------------|
      A|--3-----3-----|---2-----2-----|--3-----3-------|
      E|--------------|---------------|----------------|
      
      
      Violão 2
      
      e|------2h3--------|---------------|*
      B|-----------3h5-3-|---------5-6/8-|*
      G|--0h2------------|---------------|*
      D|-----------------|---------------|*
      A|-----------------|---------------|*
      E|-----------------|---------------|*
      
      
      Violão 1
      
           C         G/B        C        G/B
      
      e|---------|---------|---------|---------|*
      B|--1---1--|--3---3--|--1---1--|--3---3--|*
      G|----0----|----0----|----0----|----0----|*
      D|---------|---------|---------|---------|*
      A|--3---3--|--2---2--|--3---3--|--2---2--|*
      E|---------|---------|---------|---------|*
      
      
      Violão 2
      
      e|---10-8-7-5-3---|*
      B|----------------|*
      G|---10-9-7-5-4---|*
      D|----------------|*
      A|----------------|*
      E|----------------|*
      
      
      Violão 1
          Em        C       G/B         C
      
      e|---------|--------|--------|--------|
      B|--0---0--|--1--1--|--3--3--|--1--1--|
      G|--0---0--|--0--0--|--0--0--|--0--0--|
      D|---------|--------|--------|--------|2x
      A|--2-2----|--3-----|--2-----|--3-----|
      E|---------|--------|--------|--------|
      
      
      Violão 2
      
      e|-----------------|-----------------|*
      B|--7h8------------|------------10p8-|*
      G|-----------------|-----------------|*
      D|-7---------------|-----------------|*
      A|-----------------|-----------------|*
      E|-----------------|---------7*------|*
      
      
      
      
      riff 1
      Violão 1
          Em        C       G/B         C
      
      e|---------|--------|--------|--------|
      B|--0---0--|--1--1--|--3--3--|--1--1--|
      G|--0---0--|--0--0--|--0--0--|--0--0--|
      D|---------|--------|--------|--------|
      A|--2-2----|--3-----|--2-----|--3-----|
      E|---------|--------|--------|--------|
      
      Violão2
          Em       C       G/B      C
      
      e|--------|--------|--------|--------|*
      B|--------|--------|--------|--------|*
      G|--------|--------|--------|--------|*
      D|-9------|-10-----|-12-----|-10-----|*
      A|-7------|-10-----|-10-----|-10-----|*
      E|-7------|-8------|-10-----|-8------|*
      
      If the road I travel goes bad
      If the life I live becomes the life I had
      I close my eyes and I dream
      Of my butterfly coming down to rescue me
      
      riff2
      violão 1
             C7+             G/B             C7+
      
      e|--------3-----|---3-----3-----|--3-----3-------|
      B|----------5---|-----3-----3---|----5-----5-----|
      G|------4-----0-|-------0-----0-|------4-----4---|
      D|----5---------|---------------|----------------|
      A|--3----3------|---2-----2-----|--3-----3-------|
      E|--------------|---------------|----------------|
      
      
      Violão 2
              C7+                G/B            C7+
      
      e|------2h3------------|---------------|--------------|*
      B|----------3h5-3------|-----5-6/8-----|-----8/10-----|*
      G|--0h2----------------|---------------|--------------|*
      D|---------------------|---------------|--------------|*
      A|---------------------|---------------|--------------|*
      E|---------------------|---------------|--------------|*
      
      She's my butterfly, Yeah she's my butterfly
      
            C        G/B        C        G/B       Em
      
      e|---------|---------|---------|---------|---------|
      B|--1---1--|--3---3--|--1---1--|--3---3--|--0-0-0--|
      G|----0----|----0----|----0----|----0----|--0-0-0--|
      D|---------|---------|---------|---------|---------|
      A|--3---3--|--2---2--|--3---3--|--2---2--|--0-2-2--|
      E|---------|---------|---------|---------|---------|
      
      
      riff1
      If the wind that guides you pulls you away
      If the words that love you ever ask you to stay
      I still close my eyes and I dream
      Of my butterfly coming back to rescue me
      
      
      riff3
      violão 1
             C7+             G/B             C7+
      
      e|--------3-----|---3-----3-----|--3-----3-------|
      B|----------5---|-----3-----3---|----5-----5-----|
      G|------4-----0-|-------0-----0-|------4-----4---|
      D|----5---------|---------------|----------------|
      A|--3-----3-----|---2-----2-----|--3-----3-------|
      E|--------------|---------------|----------------|
      
      
      violão 2
              C7+                G/B            C7+
      
      e|------2h3------------|-----------------|--------------|*
      B|----------3h5-3------|-----3/5-6/8-----|-----8/10-----|*
      G|--0h2----------------|-----------------|--------------|*
      D|---------------------|-----------------|--------------|*
      A|---------------------|-----------------|--------------|*
      E|---------------------|-----------------|--------------|*
      
      She's my butterfly, Yeah she's my butterfly
      
      violão 1
           C        G/B       C        G/B       
      
      e|---------|--------|---------|--------|
      B|--1---1--|--3--3--|--1---1--|--3--3--|
      G|----0----|--0--0--|----0----|--0--0--|
      D|---------|--------|---------|--------|
      A|--3---3--|--2-----|--3---3--|--2-----|
      E|---------|--------|---------|--------|
      
      Don't you know that
      
      violão 1
              C7+             G/B             C7+
      
      e|--------3-----|---3-----3-----|--3-----3-------|
      B|----------5---|-----3-----3---|----5-----5-----|
      G|------4-----0-|-------0-----0-|------4-----4---|
      D|----5---------|---------------|----------------|
      A|--3-----3-----|---2-----2-----|--3-----3-------|
      E|--------------|---------------|----------------|
      
      
      violão 2
              C7+
      
      e|------2h3------------|*
      B|----------3h5-3------|*
      G|--0h2----------------|*
      D|---------------------|*
      A|---------------------|*
      E|---------------------|*
      
      She's my butterfly, I said she's my butterfly
      
      violão 1
           C        G/B       C        G/B       
      
      e|---------|--------|---------|--------|
      B|--1---1--|--3--3--|--1---1--|--3--3--|
      G|----0----|--0--0--|----0----|--0--0--|
      D|---------|--------|---------|--------|
      A|--3---3--|--2-----|--3---3--|--2-----|
      E|---------|--------|---------|--------|
      
      
      
      riff4
      violão1
                 Em                    C                      Em              C
      
      e|---------------------|--------------------|------------------------|--0--|
      B|--0-0--0-0--0-0--0-0-|-1-1--1-1--1-1--1-1-|--0-0-0--0-0---0-0--0-0-|--1--|
      G|--0-0--0-0--0-0--0-0-|-0-0--0-0--0-0--0-0-|--0-0-0--0-0---0-0--0-0-|--0--|
      D|---------------------|--------------------|------------------------|--2--|
      A|--2-2--2----2----2---|-3-3--3----3----3---|--x-2-2--2---x-2-2--2---|--3--|
      E|---------------------|--------------------|------------------------|--x--|
      
      
      violão2
      solo
      
      e|--3/7---10/5-5/3--3/5/3--2/3--3/5--5/10-|*
      B|----------------------------------------|*
      G|----------------------------------------|*
      D|----------------------------------------|*
      A|----------------------------------------|*
      E|----------------------------------------|*
      
      
      riff5
      violão 1
             C7+             G/B             C7+
      
      e|--------3-----|---3-----3-----|--3-----3-------|
      B|----------5---|-----3-----3---|----5-----5-----|
      G|------4-----0-|-------0-----0-|------4-----4---|
      D|----5---------|---------------|----------------|
      A|--3-----3-----|---2-----2-----|--3-----3-------|
      E|--------------|---------------|----------------|
      
      
      violão2
              C7+                G/B            C7+
      
      e|------2h3------------|---------------|--------------|
      B|----------3h5-3------|-----5-6/8-----|-----8/10-----|
      G|--0h2----------------|---------------|--------------|
      D|---------------------|---------------|--------------|
      A|---------------------|---------------|--------------|
      E|---------------------|---------------|--------------|
      
      She's my butterfly, Yeah she's my butterfly
      
      violão 1
           C        G/B
      
      e|---------|--------|
      B|--1---1--|--3--3--|
      G|----0----|--0--0--|
      D|---------|--------|
      A|--3---3--|--2-----|
      E|---------|--------|
      
      
      violão 1
              C7+             G/B             C7+
      
      e|--------3-----|---3-----3-----|--3-----3-------|
      B|----------5---|-----3-----3---|----5-----5-----|
      G|------4-----0-|-------0-----0-|------4-----4---|
      D|----5---------|---------------|----------------|
      A|--3-----3-----|---2-----2-----|--3-----3-------|
      E|--------------|---------------|----------------|
      
      
      violão2
              C7+                G/B
      
      e|------2h3------------|---------------|
      B|----------3h5-3------|-----5-6/8-----|
      G|--0h2----------------|---------------|
      D|---------------------|---------------|
      A|---------------------|---------------|
      E|---------------------|---------------|
      
      She's my butterfly, butterfly
      
      Violão 1
           C        G/B       C        G/B     G/B  
      
      e|---------|--------|---------|--------|---3--|
      B|--1---1--|--3--3--|--1---1--|--3--3--|---3--|
      G|----0----|--0--0--|----0----|--0--0--|---0--|
      D|---------|--------|---------|--------|---0--|
      A|--3---3--|--2-----|--3---3--|--2-----|-0-2--|
      E|---------|--------|---------|--------|---x--|
      
      
      violão2
              C7+                G/B
      
      e|---10-8-7-5-3-----|----2-2/3------|
      B|------------------|---------------|
      G|---10-9-7-5-4-----|---------------|
      D|------------------|---------------|
      A|------------------|---------------|
      E|------------------|---------------|
      
        Composição: Donavon FrankenreiterColaboração e revisão:
        • kpivarinha

        Comentários 0

        140 .
        140 cancelar

        conseguiu tocar?

        covers

        Grave um vídeo tocando Butterfly e mande pra gente!

        Ex.: http://www.youtube.com/watch?v=0IvSvIwGdwk
        ver covers de outras músicas »
        0:00 / 0:00

        Capítulos

          1 versão de violão dificuldade exibições contribuição e correção
          1 versão de guitarra dificuldade exibições contribuição e correção
          1 versão de cavaco dificuldade exibições contribuição e correção
          1 versão de teclado dificuldade exibições contribuição e correção
          play/pausefechar subir/descer velocidade
          6ª corda E5ª corda A4ª corda D3ª corda G2ª corda B1ª corda E
            acordes
            publicidade
            fechar
            ok