Another Day Goes By

Dope

Composição de: Edsel Dope
Verso 1:
G|----| |------------------------------|
D|----| |------------------------------|
A|----| |-------5--------------5-------| (2x)
E|-5--| |--5--5-----5-3-1---5-3---5-3-1|

G|---------------|
D|---------------|
A|-----6-6-------| (4x)
E|-5-5------5-3-1|

(Verso 1)

(Refrão)

Ponte:
G|--------------------------| 
D|--------------------------| 
A|-7-7-7-7-7-7-5-5-5-5-5-5-5| 
E|--------------------------| 

G|--------------|
D|--------------|
A|-0-0-0-0-0-0-0|
E|--------------|

G|---------|
D|---------|
A|-3--3-3-3|
E|---------|
Página 1 / 1

Letras e título
Acordes e artista

resetar configurações
OK