Cifra Club

Die Motherfucker Die

Dope

Tab de baixo: Principal
exibições 1.896
Intro
Gb|---------------|
Db|---------------|
Ab|---------------|
Db|30-0-030-0-0---|

Intro 2:
Gb|------------------------------------------------------------------|
Db|------------------------------------------------------------------|
Ab|------------------------------------------------------------------|
Db|30-0-030-0-03030-30-0-030-0-03030-30-0-030-0-03030-30-0-030-0-06--|

Gb|---------------------------------------------------------------|
Db|---------------------------------------------------------------|
Ab|---------------------------------------------------------------|
Db|30-0-030-0-03030-30-0-030-0-06--30-0-030-0-03030-30-0-030-0-03-|
 
Rythem 2
Gb|------------------------------------------------------------|
Db|------------------------------------------------------------|
Ab|------------------------------------------------------------|
Db|3~30-0-030-3~30-0-030-3~30-0-030-3~30-0-0(PAUSE FOR 1 BEAT)-|

Verse 1
Gb|-------------------------------------------------------|
Db|-------------------------------------------------------|
Ab|-------------------------------------------------------|
Db|30-0-030-0-03--30-0-030-0-06--30-0-030-0-03--30-0-06-2-|

Gb|------------------------------------------------------------|
Db|------------------------------------------------------------|
Ab|---------------------------------------------------------3--|
Db|30-0-030-0-03--30-0-030-0-06--30-0-030-0-03--30-0-030-0-0---|
  
Fill:
Gb|---------------------------------------------------|
Db|---------------------------------------------------|
Ab|-5--5--5--8--5--5--5--11----5--5--5--8--5--5---3---|
Db|-------------------------------------------------3-|

Chorus
Gb|--------------------------------------------------------------------|
Db|--------------------------------------------------------------------|
Ab|--------------------------------3~-------------------------------*3-|
Db|3-0000-3-0000-6~--3-0000-3-0000----3-0000-3-0000-6--30-0-030-0-0----|

Gb|--------------------------------------------------------------|
Db|--------------------------------------------------------------|
Ab|-------------------------------3------------------------------|
Db|3-0000-3-0000-6--3-0000-3-0000----3-0000-3-0000-6-30-0-030-0--|

Fill 2:
Gb|-----------------------------------------------------|
Db|-----------------------------------------------------|
Ab|-5--5--5--8--5--5--5--11----5--5--5--8--5--5---------|
Db|------------------------------------------------3--3-|

outro
Gb|---------------------------------------------------------------------------|
Db|---------------------------------------------------------------------------|
Ab|-------------------------------3-------------------------------------------|
Db|3-0000-3-0000-6--3-0000-3-0000----3-0000-3-0000-30-0-030-----30-0-030-0----|

Gb|-----------------------------|
Db|-----------------------------|
Ab|-----------------------------|
Db|30-0-030-0-00--30-0-030-0-00-|
Colaboração e revisão:
  • igor pimenta

0 comentários

mostrar mais comentários

Conseguiu tocar?

0 tocaram 0 ainda não

Grave um vídeo tocando Die Motherfucker Die e mande pra gente!

00:00 / 00:00
outros vídeos desta música
repetir qualidade Automático
Outros vídeos desta música
00:00 / 00:00
Automático
OK