Cifra Club

Aprenda

De Tudo Sou Capaz

Douglas Barreto e Fabiano

Cifra: Principal (violão e guitarra)
tom: Bb
Intro 2x: Cm  G#  Eb  Bb
E|-----------------------------------------------------------------
A|-----------------------------------------------------------------
D|--8-10-8-10------------------------------------------------------
G|-----------------------------------------------------------------
B|------------------------9-9-9-------6-8---------------------6----
E|------------6/8-8-8-8-8-------6/8-6-----6-8/11-10-11-10-8-6---6/8

E|-----------------------------------------------------------------
A|-----------------------------------------------------------------
D|-----------------------------------------------------------------
G|-----------------------------------------------------------------
B|--------------9-9-6/8-----------------6/8------------------------
E|--6/8-8-8-8-8---------6-8-6-6-6-6-6-6-----6-8-11-11-10-6-8-------

Cm           G#                       Eb
Dizem que um amor quando sai da tua vida
                     A# (ou Bb )            Cm
é tao facil o mundo gira e outro logo vem
       G#                           Eb
que a fila anda e quando voce se espanta
                  Bb                     Cm
outro amor chegou coisa melhor não tem

             G#                   Eb
mais comigo foi diferente aquele amor que
              Bb                   Cm
um dia chegou nao quer sair mais
                 G#
te quero e vou te amar pra sempre
        Eb Bb           G#          Bb
minha vida por você sou capaz ah ah aiz

Cm            G#                    Eb
De pisar no ceu ir por mundo das estrelas
                   Bb                     Cm
quando vejo teu sorriso sou feliz de mais        (2x)
           G#                      Eb
e se eu encosto minha boca na sua boca
             Bb
vou mais alem de tudo sou capaz

             Bb              G#   Bb 
vou mais alem de tudo sou capaz
Composição de Douglas Barreto
Colaboração e revisão:
  • Alex Souza
466 exibições
    • ½ Tom
    • A
    • Bb
    • B
    • C
    • Db
    • D
    • Eb
    • E
    • F
    • F#
    • G
    • Ab
  • Adicionar à lista

    0 comentários

    Ver todos os comentários

    Conseguiu tocar?

    0 Tocaram 0 Ainda não

    Grave um vídeo tocando De Tudo Sou Capaz e nos envie!

    00:00 / 00:00
    outros vídeos desta música
    repetir qualidade Automático
    Outros vídeos desta música
    00:00 / 00:00
    Automático

    Cifra Club Pro

    Aproveite o Cifra Club com benefícios exclusivos e sem anúncios
    Cifra Club Pro
    Aproveite o Cifra Club com benefícios exclusivos e sem anúncios
    OK