Cifra Club

Juntos Somos Nós

Cascadura

Cifra: Principal (violão e guitarra)
tom: G
[Tab - Intro]
E

E
Deixa estar

E                             E
O seu sorriso e o seu perfume onde for

E                 E
Me dá tua solidão

D    D7M           Bm            Bm        F#m F#
Ao entrar em minha vida como uma onda de calor
                  G          A7
Fez-me melhor que até então

Bb5+/D           Bm   Bm/A
    Juntos Somos Nós
Bb5+/D            Bm  Bm/A
    Sós Não Somos Não
Bb5+/D           Bm   A7   G
     O que puder ser, se.. rá

E|-5p3-------|
B|-3---------|
G|-3---------| (forma de Gm)
D|-3---------|
A|-5---------|
E|-3---------|
                   D
Então que seja bom

D        D7M           Bm                       F#m  F#
Não, não há, nada que apague esse lume que é só teu
             G     A7
E tanto eu desejo
D      D7M        Bm                        F#m  F#
Vou te dar tudo o que alguém jamais te prometeu
           G           A7
É só me deixar ser teu

Bb5+/D           Bm   Bm/A
    Juntos Somos Nós
Bb5+/D            Bm  Bm/A
    Sós Não Somos Não
Bb5+/D           Bm   A7   G
     O que puder ser, se.. rá

E|-5p3-------|
B|-3---------|
G|-3---------| (forma de Gm)
D|-3---------|
A|-5---------|
E|-3---------|
                   D
Então que seja bom

[Solo] D  D7M  Bm  F#m  F#  G  A7

E|-----------------------------------------------------------------------------|
B|-----3-2---------------------------------------------------------------------|
G|---2-----2-2-----------------------------3~--------7-7--7------9------9---9~-|
D|-4------------4-2-4-4~--2-4-4~--2------4-----4-4/5---------5/7---5-5---5-----|
A|----------------------------------4~-----------------------------------------|
E|-----------------------------------------------------------------------------| TMF

Bb5+/D           Bm   Bm/A
    Juntos Somos Nós
Bb5+/D            Bm  Bm/A
    Sós Não Somos Não
Bb5+/D           Bm   A7   G
     O que puder ser, se.. rá

E|-5p3-------|
B|-3---------|
G|-3---------| (forma de Gm)
D|-3---------|
A|-5---------|
E|-3---------|
                   D
Então que seja bom
00:00 / 00:00
Outros vídeos desta música
Repetir
Outros vídeos desta música
Composição de Fábio Cascadura
Colaboração e revisão:
  • Thiago Fernandes
  • Isamu Watanabe
  • Yuri Castro
10.012 exibições
    • ½ Tom
    • A
    • Bb
    • B
    • C
    • Db
    • D
    • Eb
    • E
    • F
    • F#
    • G
    • Ab
  • Adicionar à lista

    0 comentários

    Ver todos os comentários

    Conseguiu tocar?

    1 Tocaram 0 Ainda não

    Grave um vídeo tocando Juntos Somos Nós e nos envie!

    Entre para oCifra Club PRO

    Tenha acesso a benefícios exclusivos no App e no Site

    • Chega de anúncios

    • Prioridade de compra em lançamentos

    • Mais recursos no app do Afinador

    • Atendimento Prioritário

    • Descontos nos produtos Cifra Club

    • Ajude a produzir mais conteúdo

    00:00 / 00:00

    Cifra Club Pro

    Aproveite o Cifra Club com benefícios exclusivos e sem anúncios
    Cifra Club Pro
    Aproveite o Cifra Club com benefícios exclusivos e sem anúncios
    OK