Forgot About Dre

Dr. Dre

Composição de: Andre Young / Marshall Mathers / Melvin Bradford
tom: F
Album:Chronic 2001 
Transcribedby: Justin Adair 
Email:C* 

-------------------------------------|------------3---5--6-------------3--5--- 
-------------------------------------|---------3--------------------3--------- 
-------------------------------------|------3---------2--3-------3--------2--- 
--------------------------------8----|---5--------------------1--------------- 
----------------------6----5---------|---------------------------------------- 
-3----3--5--6----5-------------------|---------------------------------------- 
 (bass line)                              guitar part                         

-6---------------------------------------------------------------------------- 
------------------------------------------------------------------------------ 
-3---------------------------------------------------------------------------- 
------------------------------------------------------------------------------ 
------------------------------------------------------------------------------ 
------------------------------------------------------------------------------ 
                    have fun                                                  
Página 1 / 1

Letras e título
Acordes e artista

resetar configurações
OK