Cifra Club

Aprenda

Futebol, Mulher e Rock'n Roll

Dr. Sin

Tab de baixo: Principal
F#|------------------|------------------|------------------|------------------|
C#|------------------|------------------|------------------|------------------|
G#|------------------|------------------|------------------|------------------|
D#|------------------|------------------|------------------|------------------|


                                                                            
------------------|------------------|------------------|------------------|
------------------|------------------|------------------|------------------|
------------------|------------------|------------------|------------------|
------------------|------------------|------------------|------------------|


                                                                             
|-------------------------|------------------------|------------------------|
|*------------------------|------------------------|------------------------|
|*------------------------|------------0--1--------|------------------------|
|---0----0--0----0--0--0--|----0----0--------0--1--|--1--0----0----0--0--0--|


                                                                          
-----------------------|------------------------|------------------------|
-----------------------|------------------------|------------------------|
-----------------------|------------------------|------------0--1--------|
----0----0--3--0--5----|--0----0--0----0--0--0--|----0----0--------0--1--|


                                                                           
------------------------|-----------------------|-------------------------|
------------------------|-----------------------|-------------------------|
------------------------|-----------------------|-------------------------|
--1--0----0----0--0--0--|----0----0--3--0--5----|--0----0--0--0--0--0--0--|


                                                      
--------------------------|--------------------------|
--------------------------|--------------------------|
--------------------------|--------------------------|
--0--0--0--0--0--0--0--0--|--3--3--3--3--3--3--3--3--|


                                                      
--------------------------|--------------------------|
--------------------------|--------------------------|
--------------------------|--------------------------|
--3--3--3--3--3--3--3--3--|--0--0--0--0--0--0--0--0--|


                                                      
--------------------------|--------------------------|
--------------------------|--------------------------|
--------------------------|--------------------------|
--0--0--0--0--0--0--0--0--|--3--3--3--3--3--3--3--3--|


                                                           
--------------------------|-------------------------------|
--------------------------|-------------------------------|
--------------------------|--2----------2----------2------|
--3--3--3--3--3--3--3--3--|-----0-0-0-0----0-0-0-0----0-0-|


                                                                
-------------------------------|-------------------------------|
-------------------------------|-------------------------------|
--2----------2----------2------|--5----------5----------5------|
-----0-0-0-0----0-0-0-0----0-0-|-----3-3-3-3----3-3-3-3----3-3-|


                                                                
-------------------------------|-------------------------------|
-------------------------------|-------------------------------|
--5----------5----------5------|--2----------2----------2------|
-----3-3-3-3----3-3-3-3----3-3-|-----0-0-0-0----0-0-0-0----0-0-|


                                                                
-------------------------------|-------------------------------|
-------------------------------|-------------------------------|
--2----------2----------2------|--5----------5----------5------|
-----0-0-0-0----0-0-0-0----0-0-|-----3-3-3-3----3-3-3-3----3-3-|


                                                         
-------------------------------|------------------------|
-------------------------------|------------------------|
--5----------5----------5------|------------------------|
-----3-3-3-3----3-3-3-3----3-3-|--0----3h0-3----1----3--|


                                                                          
--------------------------|------------------------|--------------------||
--------------------------|------------------------|-------------------*||
--------------------------|------------------------|-------------------*||
--0----3--0-3--0-3-0-3b---|--0----3h0-3----1----3--|--0-----------------||


                                                                           
------------------------|------------------------|------------------------|
------------------------|------------------------|------------------------|
------------------------|------------0--1--------|------------------------|
--0----0--0----0--0--0--|----0----0--------0--1--|--1--0----0----0--0--0--|


                                                                          
-----------------------|------------------------|------------------------|
-----------------------|------------------------|------------------------|
-----------------------|------------------------|------------0--1--------|
----0----0--3--0--5----|--0----0--0----0--0--0--|----0----0--------0--1--|


                                                 
------------------------|-----------------------|
------------------------|-----------------------|
------------------------|-----------------------|
--1--0----0----0--0--0--|----0----0--3--0--5----|


                                                                    
----------------------------------|--------------------------------|
----------------------------------|--------------------------------|
----------------------------------|------------------12---11---10--|
--0-0-3-0-3/5-0-0-3-0-3/5-0-0-3/5-|--0-0-3-0-3/5-0-0---------------|


                                                                    
----------------------------------|--------------------------------|
----------------------------------|--------------------------------|
----------------------------------|------------------12---11---10--|
--0-0-3-0-3/5-0-0-3-0-3/5-0-0-3/5-|--0-0-3-0-3/5-0-0---------------|


                                                                      
----------------------------------|----------------------------------|
----------------------------------|----------------------------------|
----------------------------------|----------------------------------|
--0-0-3-0-3/5-0-0-3-0-3/5-0-0-3-0-|--3/5-0-0-5-0-5/6-0-0-6-0-6/7-0-0-|


                                                                               
-----------------------------------|---------------------|--------------------|
-----------------------------------|---------------------|--------------------|
-----------------------------------|---------------------|--------------------|
--7-0-7/8-0-0-8-0-8/9-0-0-9-0-9/10-|--0-0-10-0-10/11-0-0-|--12----------------|


                                                                               
-------------------|------------------|-------------------|-------------------|
-------------------|------------------|-------------------|-------------------|
-------------------|------------------|--------------5----|--7/---------------|
--0----------------|------------------|-------------------|-------------------|


                                                                                
-------------------|-------------------|-------------------|-------------------|
-------------------|-------------------|-------------------|-------------------|
--------------5----|--7/---------------|--------------5----|--7/---------------|
-------------------|-------------------|-------------------|-------------------|


                                                               
------|------|------|------|------|------|------|------|------|
------|------|------|------|------|------|------|------|------|
------|------|------|------|------|------|------|------|------|
------|------|------|------|------|------|------|------|------|


                                                                           
------------------------|------------------------|------------------------|
------------------------|------------------------|------------------------|
------------------------|------------0--1--------|------------------------|
--0----0--0----0--0--0--|----0----0--------0--1--|--1--0----0----0--0--0--|


                                                                          
-----------------------|------------------------|------------------------|
-----------------------|------------------------|------------------------|
-----------------------|------------------------|------------0--1--------|
----0----0--3--0--5----|--0----0--0----0--0--0--|----0----0--------0--1--|


                                                                          
------------------------|-----------------------|------------------------|
------------------------|-----------------------|------------------------|
------------------------|-----------------------|------------------------|
--1--0----0----0--0--0--|----0----0--3--0--5----|--0----0--0----0--0--0--|


                                                                          
------------------------|------------------------|-----------------------|
------------------------|------------------------|-----------------------|
------------0--1--------|------------------------|-----------------------|
----0----0--------0--1--|--1--0----0----0--0--0--|----0----0--3--0--5----|


                                                                           
------------------------|------------------------|------------------------|
------------------------|------------------------|------------------------|
------------------------|------------0--1--------|------------------------|
--0----0--0----0--0--0--|----0----0--------0--1--|--1--0----0----0--0--0--|


                                                                          
-----------------------|------------------------|------------------------|
-----------------------|------------------------|------------------------|
-----------------------|------------------------|------------0--1--------|
----0----0--3--0--5----|--0----0--0----0--0--0--|----0----0--------0--1--|


                                                                          
------------------------|-----------------------|------------------------|
------------------------|-----------------------|------------------------|
------------------------|-----------------------|------------------------|
--1--0----0----0--0--0--|----0----0--3--0--5----|--0----0--0----0--0--0--|


                                                                          
------------------------|------------------------|-----------------------|
------------------------|------------------------|-----------------------|
------------0--1--------|------------------------|-----------------------|
----0----0--------0--1--|--1--0----0----0--0--0--|----0----0--3--0--5----|


                                                                              
-------------------|------------------|------------------|------------------||
-------------------|------------------|------------------|------------------||
-------------------|------------------|------------------|------------------||
--0----------------|------------------|------------------|------------------||

_______________________________________________________
Contribuição: Gabriel(gabriel@cifraclub.com.br)
Composição de ANDRIA BUSIC / Edu Ardanuy / IVAN BUSIC
11.320 exibições

0 comentários

Mostrar mais comentários

Conseguiu tocar?

0 Tocaram 0 Ainda não

Grave um vídeo tocando Futebol, Mulher e Rock'n Roll e mande pra gente!

00:00 / 00:00
outros vídeos desta música
repetir qualidade Automático
Outros vídeos desta música
00:00 / 00:00
Automático

Cifra Club Pro

Aproveite o Cifra Club com benefícios exclusivos e sem anúncios
7 dias grátis
Cifra Club Pro
Aproveite o Cifra Club com benefícios exclusivos e sem anúncios
7 dias grátis
OK