Cifra Club

Aprenda

You Stole My Heart

Dr. Sin

Cifra: Principal (violão e guitarra)
Tom: B
Intro: (Bm A9)

Versão Acústica
               T  T  T
Eb| -------5---------------------5---5s7-9s10-10--7s9-9--5s7-7-5s7-7-3s5-
Bb| ---------------------------------------------------------------------
Gb| ----------14h15p14---------------------------------------------------
Db| ---6h7----14h15p14------6h7------------------------------------------
Ab| ---------------------------------------------------------------------
Eb| -7--------------------7----------------------------------------------

Eb| -------------------------------------------------------------
Bb| -5-3-5s7-5-3s5--3s2------------------------------------------
Gb| --------------------4-2----------2---------------------------
Db| ------------------------4-2--2h4---4-------------------------
Ab| -------------------------------------5-2---------------------
Eb| -------------------------------------------------------------

Bm                     A9
When I saw you for the first time 
Bm                          A9
I felt my heartbeat growing stronger 

 Gb| ---------------                 Gb |----------------------
 Db| ---------------        ou       Db |-----0----------------
 Ab| -----5---------                 Ab |-0-2---2--------------
Eb| -5-7---7-------                 Eb |----------------------

D5(9)           A9/C#
You came to me just like 
  Bm7(11)       Bb9  C9
a vision of hope
D5(9)     A9/C#     Bm7(11)       Bb9 C9
And I knew we'd be together somehow
D5(9)                   A9/C#
You gotta know You're all I want
     Bm7(11)         Bb9  C9
Only you make me feel
  D5(9)        A9/C#     Bm7(11) Bb9 C9
I don't have to die to go to heaven

F                    G
Baby, baby, you know I need you
F                        G
Just like I need the air I breathe
               C9
You changed my life
    G/B           Am
You wake up my feelings 
  G              C9
I never knew love
      G/B            Am
I was blind - Now I see that
    G          F
You stole my heart

Solo: (Bm A9)

Eb| --------------------10-10--9-9--7-7-----------------------------
Bb| --------------------------------------10-10---10-7-10-7-10s12---
Gb| ------7---7-----------------------------------------------------
Db| --7h9---9---9-9~--9------9----9-----9---------------------------
Ab| ----------------------------------------------------------------
Eb| ----------------------------------------------------------------

Eb| -------10-14-10----------10-14-12-12-10-10-9-9-------------------------
Bb| ----12----------12----12-----------------------12-10~-10-7~------------
Gb| -11----------------11---------------------------------------9-7~-7-----
Db| ------------------------------------------------------------------9-9~-
Ab| -----------------------------------------------------------------------
Eb| -----------------------------------------------------------------------

Bm                       A9
Anytime you're not right next to me
Bm                        A9
I'm so afraid you'll stay away

Eb| ---------2-----                 
Bb| -0-2-3-5-------             
Gb| ---------------                 
Db| ---------------                 


D           A9/C#     Bm7       Bb9
There is no way to go easy with love
D            A9/C#
It can be so dangerous
         Bm7         Bb9
But this time I must try
D                   A9/C#
You gotta know You're all I want
     Bm7         Bb9
Only you make me feel
         D              A9/C#     Bm7 Bb9
We don't have to die to go to heaven
F                    G
Baby, baby, you know I need you
F                        G
Just like I need the air I breathe
               C9
You changed my life
    G/B           Am
You wake up my feelings 
  G              C9
I never knew love
      G/B            Am
I was blind - Now I see that
    G          FM   G
You stole my heart

  Solo do final: (Am C9 G F)
Eb| --------------------------------------------------------------------
Bb| ---------------------10-12~-13-13~-12-12~--8-8----------------------
Gb| -------5---5h7-7s9--9------------------------7h9-7------------------
Db| ---5h7---7-----------------------------------------10-10-9-7-9-7----
Ab| -7---------------------------------------------------------------10-
Eb| --------------------------------------------------------------------

Eb| ---------7-10-8-8-7-7-5-5---------------------------------12~-------
Bb| -------8------------------8s10-10~--8-10-12-13~--12-13-15-----------
Gb| -----7--------------------------------------------------------------
Db| ---9----------------------------------------------------------------
Ab| -10-----------------------------------------------------------------
Eb| --------------------------------------------------------------------

Eb| -------------------------12-17-12----------12-15-12---------12-15-12-------
Bb| -15-13-12-13-12-------13----------13----13----------13---13----------13----
Gb| ----------------14-14----------------14---------------14----------------12-
Db| ---------------------------------------------------------------------------
Ab| ---------------------------------------------------------------------------
Eb| ---------------------------------------------------------------------------

Eb| ----12-15-13-12s10-13-12-10s8-12-10-8s7-10-8-7s5-8-7-5------
Bb| -13----------------------------------------------------8s10-
Gb| ------------------------------------------------------------
Db| ------------------------------------------------------------
Ab| ------------------------------------------------------------
Eb| ------------------------------------------------------------

Eb| ----------------------------------------------------------------
Bb| -8h10--8h10--------------------8h10-8h10------------------------
Gb| -7-----7----9-7---7--9-7----7--7----7----9-7----5---5-----------
Db| ---------------10--- ---10------------------10--5h7-5h7---------
Ab| --------------------------------------------------------7-5--5--
Eb| ------------------------------------------------------------8---
                                             Am
                                               
Eb| -------------------------------8---7----5------
Bb| -----------------------------------------------
Gb| ---------------------------5s7---7---7---------
Db| -----------------5-5h7-5-7---------------------
Ab| -5h7-5-------7-8-------------------------------
Eb| ------5-3-5------------------------------------

Am                C
Stole my heart baby
                 G                  F
Stole my heart baby  Stole my heart baby

Eb| ----------------------------8-10-----------------------------
Bb| -------------------8-6-8s10-----10-8-6-8s10~-8-10-8-10-8-10--
Gb| -7-5-5h7--9-7-7h9--------------------------------------------
Db| -------------------------------------------------------------
Ab| -------------------------------------------------------------
Eb| -------------------------------------------------------------

      Am                                C
Eb| ------------------------------------------------------------------
Bb| ------------------------------------------------------------------
Gb| -7-5-----7-5-----7-5------7-5--------5-7-7s9--10s12-9--7-5-7s9----
Db| -----7-5-----7-5------7-5-----7-5--7------------------------------
Ab| ------------------------------------------------------------------
Eb| ------------------------------------------------------------------
        G                                              F
Eb| ----------------------------------------------12-15-15b-15b-------
Bb| -13-13-13-12-12-12-10-10-10-12-12-13-13s15-15---------------------
Gb| ------------------------------------------------------------------
Db| ------------------------------------------------------------------
Ab| ------------------------------------------------------------------
Eb| ------------------------------------------------------------------
     Am                                       C
Eb| ------------------------------------------------------------------
Bb| ------------------------------------------------------------------
Gb| -------5-7-7s9-9-7-9-5-9-4-9-------7-9-10s12-12-10-12-9-12-7------
Db| ---5-7-----------------------7-10---------------------------------
Ab| -7----------------------------------------------------------------
Eb| ------------------------------------------------------------------
     G                                   F
Eb| ------------------------------------------------------------------
Bb| -------------------------------13-12-10-8-5~----------------------
Gb| ----------------------10-12-14---------------7-5-5h7-5-4-2--------
Db| -10-9---------9-10-12---------------------------------------------
Ab| -----10-10-12-----------------------------------------------------
Eb| ------------------------------------------------------------------

     Am                                         C
Eb| --------8-10-10s12-12-10-12-8-12-7---------10-12-13s15--15-13-15-12-15-10-
Bb| ---8-10------------------------------10-12--------------------------------
Gb| -9------------------------------------------------------------------------
Db| --------------------------------------------------------------------------
Ab| --------------------------------------------------------------------------
Eb| --------------------------------------------------------------------------
     G                           F
Eb| -7-8-7-5-7-5-3-5-3-----------3------------------------------------
Bb| -----------------3h5-3-1-----1------------------------------------
Gb| -------------------------2---2------------------------------------
Db| -----------------------------3------------------------------------
Ab| ------------------------------------------------------------------
Eb| ------------------------------------------------------------------

Composição de ANDRIA BUSIC / Eduardo Ardanuy / IVAN BUSIC
Colaboração e revisão:
  • hernanny moura
10.564 exibições
    • ½ Tom
    • A
    • Bb
    • B
    • C
    • Db
    • D
    • Eb
    • E
    • F
    • F#
    • G
    • Ab
  • Adicionar à lista

    0 comentários

    Mostrar mais comentários

    Conseguiu tocar?

    3 Tocaram 0 Ainda não

    Grave um vídeo tocando You Stole My Heart e mande pra gente!

    00:00 / 00:00
    outros vídeos desta música
    repetir qualidade Automático
    Outros vídeos desta música
    00:00 / 00:00
    Automático

    Cifra Club Pro

    Aproveite o Cifra Club com benefícios exclusivos e sem anúncios
    7 dias grátis
    Cifra Club Pro
    Aproveite o Cifra Club com benefícios exclusivos e sem anúncios
    7 dias grátis
    OK