Notificações Amigos pendentes

      Dragon Ball GT

      Mi Corazón Encantado

      26.913 exibições
      Tom: C#
      
      E|-9/11-11-7-9-11-12-11-9-7-6-6/7-7-4-6-7-9-9-7-6-4-2-
      B|----------------------------------------------------
      G|----------------------------------------------------
      D|----------------------------------------------------
      A|----------------------------------------------------
      E|----------------------------------------------------
      
      
      E|-4-7-11-9-7-9-10-9-7-5-7-5-
      B|---------------------------
      G|---------------------------
      D|---------------------------
      A|---------------------------
      E|---------------------------
      
      
      C                  G
      Tu sonrisa tan resplandeciente,
      Am            Em
      a mi corazón deja encantado,
      F            Am         Dm
      ven toma mi mano, para huir de
              G              C
      esta terrible obscuridad...
      
      Fm                Bb                Gm
      En el instante en que te volvi a encontrar,
                      Cm                    Fm
      mi mente trajo a mi aquel hermoso lugar,
                     G                Cm        D#
      que cuando era niño fue tan valioso para mi,
            G#
      quiero saber, si acaso tu conmigo quieres
      Gm                   Cm          Fm
      bailar, si me das tu mano te llevare, por
          G                   Cm           D#
      un camino, cubierto de luz y obscuridad,
                G#
      tal vez sigas pensando en el, no puedo yo
         Gm                Cm                 F
      saberlo pero se y entiendo que amor necesitas
            Bb                                   G
      tu, y el valor para pelear, en mi lo hallaras.
      
      C                G           Am
      Mi corazón encantado vibra, por el polvo
             Em              F        Am
      de esperanza y magia, del universo que,
            Dm         Em   G  C
      ambisionan todos poseer, voy a amarte para
      G             Am                    Em
      toda la vida, no me importa si aun no te
                F             Am        Dm
      interese, ven toma mi mano para huir de
               G           C
      esta infinita obscuridad
      
      SOLO (Aun no lo hago y si lo busco no sale)
      
      
      (Toquen lo del 2º 3º Y 4º VERSO)
      Sin importar que pase yo te amare
      
      Y quiero que por siempre a mi lado estés.
      
      No vale la pena seguir pensando en el ayer.
      
      
      Quiero saber si acaso sigues tu soñando con el
      
      En un mar de dudas me perderé
      
      Y ya no encuentro el camino que me lleve hasta ti.
      
      
      Cuando al fin me logre decidir
      
      A confesar las cosas que siento por ti
      
      No sé que me lo impidió
      
      Pero hoy voy a pelar con todo mi amor.
      
      
      C                G           Am
      Mi corazón encantado vibra, por el polvo
             Em              F        Am
      de esperanza y magia, Te voy a demostrar que
      Dm         Em   G
      el amor que siento es real
      C                 G             Am
      Voy a amarte para toda la vida, que mas da ven
         Em
      ya no tengas miedo
      F           Em     Dm               G          C
      Ven toma mi mano y busquemos juntos la felicidad.
      
      
      
      E|--3—3—0—1—3---5—3—1---0------0—0---------0--1--0----------------|
      B|--------------------------3---------1--3---------3--1--0--------|
      G|------------------------------------------------------------2--2|
      D|----------------------------------------------------------------|
      A|----------------------------------------------------------------|
      E|----------------------------------------------------------------|
      
      
      E|----------5-h—3—--3------------------------------------------------|
      B|----------------------3----3----5--—6---5---3----1---5---6-p-5---3-|
      G|-2—2--5------------------------------------------------------------|
      D|-------------------------------------------------------------------|
      A|-------------------------------------------------------------------|
      E|-------------------------------------------------------------------|
      
      
      E|--3—3—0—1—3---5—3—1---0------0—0---------0--1--0----------------|
      B|--------------------------3---------1--3---------3--1--0--------|
      G|------------------------------------------------------------2--2|
      D|----------------------------------------------------------------|
      A|----------------------------------------------------------------|
      E|----------------------------------------------------------------|
      
      
      E|----------5-h—3—-3----------------------------------------------------|
      B|--------------------3-----3-----5--—6---5---3----1---5---3---1--0--1--|
      G|-2—-2--5--------------------------------------------------------------|
      D|----------------------------------------------------------------------|
      A|----------------------------------------------------------------------|
      E|----------------------------------------------------------------------|
      
      
      E|-------8---8---8---8---8----6----4----6----8-----6---|
      B|--1--------------------------------------------------|
      G|-----------------------------------------------------|
      D|-----------------------------------------------------|
      A|-----------------------------------------------------|
      E|-----------------------------------------------------|
      
      
      E|--6---6---6---6----6--4---3---4----6------4----|
      B|-----------------------------------------------|
      G|-----------------------------------------------|
      D|-----------------------------------------------|
      A|-----------------------------------------------|
      E|-----------------------------------------------|
      
      
      E|--4--4--4-----4-3-------3------------------------------|
      B|---------------------6-------6-----6-----4-----6-/8----|
      G|-------------------------------------------------------|
      D|-------------------------------------------------------|
      A|-------------------------------------------------------|
      E|-------------------------------------------------------|
      
      
      E|--3--4--6--8--8---8---8---8---8---6--4--6--8--6-----------|
      B|----------------------------------------------------------|
      G|----------------------------------------------------------|
      D|----------------------------------------------------------|
      A|----------------------------------------------------------|
      E|----------------------------------------------------------|
      
      
      E|--6--6--8--10--10--11-----------|-------------------|
      B|----------------------11---9-8-9|-9--11--9--9--8----|
      G|--------------------------------|-------------------|
      D|--------------------------------|-------------------|
      A|--------------------------------|-------------------|
      E|--------------------------------|-------------------|
      
      
      E|----15-13-13-12-13-12-13-|-4--6-8-8-6-8-|-6--10--8-6-4-4-3-4-3-3-4-3|
      B|-8-----------------------|--------------|---------------------------|
      G|-------------------------|--------------|---------------------------|
      D|-------------------------|--------------|---------------------------|
      A|-------------------------|--------------|---------------------------|
      E|-------------------------|--------------|---------------------------|
      

      Comentários 2

      140 .
      • agustin26agosto agustin26agosto: Em 20/07/2012 13:05

        ¿Podrías poner los acordes después del 2º verso?

        • auditore_ auditore_: Em 22/09/2012 20:11

          se toca lo mismo toda la canción es igual

      140 cancelar

      conseguiu tocar?

      covers

      Grave um vídeo tocando Mi Corazón Encantado e mande pra gente!

      Ex.: http://www.youtube.com/watch?v=0IvSvIwGdwk
      ver covers de outras músicas »
      0:00 / 0:00

      Capítulos

        1 versão de violão dificuldade exibições contribuição e correção
        1 versão de guitarra dificuldade exibições contribuição e correção
        1 versão de cavaco dificuldade exibições contribuição e correção
        1 versão de teclado dificuldade exibições contribuição e correção
        play/pausefechar subir/descer velocidade
        6ª corda E5ª corda A4ª corda D3ª corda G2ª corda B1ª corda E
          acordes
          publicidade
          fechar
          ok