Cifra Club

Abertura Dragon Ball GT

Dragon Ball

Cifra: Principal (violão e guitarra)
tom: F

Introdução:
E|-------------------------------------------------------------------|
B|-------------------------------------------------------------------|
G|----0----0-----0---------------------------------------------------|
D|------3-----2------0-----------------------------------------------|
A|-------------------------------------------------------------------|
E|-------------------------------------------------------------------|


C              G           Am                Em           F
Seu sorriso é tão resplandecente, que deixou meu coração alegre
         Em Am       Dm           G           G#  A#  C
Me dê a mão , prá fugir desta terrivel escuridão

Fm                 Bb            Gm
Desde o dia em que eu te reencontrei,
              Cm7            Fm
Me lembrei daquele lindo lugar,
                G           Cm           D#
Que na minha infância era especial para mim
        G#             Bb              Gm
Quero saber se comigo você quer vir dançar,
             Cm            Fm
Se me der a mão eu te levarei,
          G              Cm7           D#
Por um caminho cheio de sombras e de luz.
      G#             Bb
Você pode até não perceber,
              Gm                  Cm
Mas o meu coração se amarrou em você,
            F         G#
Que precisa de alguém pra te mostrar
    A#                  G
O amor que o mundo te dá.

C               G            Am               Em          F
Meu alegre coração palpita, por um universo de esperança.
         Em Am      Dm      E G
Me dê a mão, a magia nos espera.
C                      G
Vou te amar por toda a minha vida,
Am              Em            F
Vem comigo por este caminho.
         Em Am     Dm                 G      G# A# C
Me dê a mão, prá fugir desta terrivel escuridão.

Fm          Bb            Gm
Lembra foi aqui que um dia que eu deixei
              Cm7            Fm
um grande tesouro pra te lembrar
                G           Cm           D#
mesmo que um dia eu cresça meu amor nunca terá fim.
        G#             Bb              Gm
Quero saber que galáxia você quer desvendar
             Cm            Fm
se me der a mão contigo eu irei 
          G              Cm7           D#
a qualquer destino que esconde esse céu azul

      G#             Bb
Mesmo assim eu só quero lembrar
              Gm                  Cm
que tudo que eu guardei foi desejo de amar.
     F         G#
mas hoje eu sou esse alguém
    A#                  G
que vai te mostrar esse o amor que tenho pra dar

C               G            Am               Em          F
Meu alegre coração palpita por um universo de esperança
         Em Am      Dm      E G
Me dê a mão, a magia nos espera
C                      G
Vou te amar por toda a minha vida
Am              Em            F
Vem comigo por este caminho

         Em Am     Dm                 G      G# A# C
Me dê a mão, pra fugir desta terrível escuridão


Riff 1:

E|-0-0---0-1-0--------------------------1-0-----0-1-0----------------|
B|----1-3-----3-1-0-1-1--0-1-3-1-0-----1---3-1-3-----3-1-3-3-1-0-0-1-|
G|---------------------2----------2-0-2------------------------------|
D|-------------------------------------------------------------------|
A|-------------------------------------------------------------------|
E|-------------------------------------------------------------------|





Riff 2:

E|-------------------------------------------------------------------|
B|-1-1-1-1-1-----1---------------------------------------------------|
G|----------3-1-3--3-3-3-3-3-3-1-0-1-3-1-1-1-1-1-1--0-0-----0------0-|
D|-----------------------------------------------------3-3-3--1-1-3--|
A|-------------------------------------------------------------------|
E|-------------------------------------------------------------------|

Riff 3:
E|----------------------------------------------------3-1-1----------|
B|-----1-1-1-1-1-1------1------1-3-3-4----------------------4-3-4----|
G|-1-3------------3-1-3--3-3-3--------3-1-0-1--1-1-0-0---------------|
D|-------------------------------------------------------------------|
A|-------------------------------------------------------------------|
E|-------------------------------------------------------------------|

Riff 4:
E|---------------------1--------------------------------3-1-1-1--1-3-|
B|-1-3-4-4-1-4-4-1-4-1--4-3-1-1----------------1-3-3-4-1-------4-----|
G|------------------------------3-0-3-3-0-3-3-3----------------------|
D|-------------------------------------------------------------------|
A|-------------------------------------------------------------------|
E|-------------------------------------------------------------------|


Riff 5:

E|-0-0----0-1-0-------------------------------1-0-----0-1-0---0-1-0--|
B|-----1-3------3-1-0---1-1---0-1-3-1-0------1---3-1-3-----3-1-----3-|
G|--------------------------2-----------2-0-2------------------------|
D|-------------------------------------------------------------------|
A|-------------------------------------------------------------------|
E|-------------------------------------------------------------------|

Riff 6:
E|-0-0---0-1-0--------------------------1-0-----0-1-0----------------|
B|----1-3-----3-1-0-1-1--0-1-3-1-0-----1---3-1-3-----3-1-3-3-1-0-0-1-|
G|---------------------2----------2-0-2------------------------------|
D|-------------------------------------------------------------------|
A|-------------------------------------------------------------------|
E|-------------------------------------------------------------------|
00:00 / 00:00
Outros vídeos desta música
Repetir
Outros vídeos desta música
Composição de Rodrigo Mayer
Colaboração e revisão:
  • Rodrigo Mayer
28.676 exibições
    • ½ Tom
    • A
    • Bb
    • B
    • C
    • Db
    • D
    • Eb
    • E
    • F
    • F#
    • G
    • Ab
  • Adicionar à lista

    0 comentários

    Ver todos os comentários

    Conseguiu tocar?

    2 Tocaram 1 Ainda não

    Grave um vídeo tocando Abertura Dragon Ball GT e nos envie!

    Entre para oCifra Club PRO

    Tenha acesso a benefícios exclusivos no App e no Site

    • Chega de anúncios

    • Prioridade de compra em lançamentos

    • Mais recursos no app do Afinador

    • Atendimento Prioritário

    • Descontos nos produtos Cifra Club

    • Ajude a produzir mais conteúdo

    00:00 / 00:00

    Cifra Club Pro

    Aproveite o Cifra Club com benefícios exclusivos e sem anúncios
    Cifra Club Pro
    Aproveite o Cifra Club com benefícios exclusivos e sem anúncios
    OK