Chala Head Chala

Dragon Ball

Composição: aKIRA tORYAMA
Tom: A (com acordes na forma de )
Intro:


E|-----------------------------------------------|
B|-----------------------------------------------|
G|-----------------------------------------------|
D|--7--6-----7--6------7--6--6--4--4--4------4b--|
A|--------7--------------------------------------|
E|-----------------------------------------------|



Verso/Estrofe:


E|--------------------------------------------------------------|
B|--------------------------------------------------------------|
G|--------------------------------------9--------------------9--|
D|--7--6-----9--9--7--6--9--9--9--7--6-----------9--9--7--6-----|
A|--------7-----------------------------------------------------|
E|--------------------------------------------------------------|


E|------------------------------------------------------------------|
B|------------------------------------------------------------------|
G|------------------------------------------------------------------|
D|------------------------------------------------------------------|
A|--7--9--10------12-----14--15-----17--17--15--15--14----------14--|
E|------------------------------------------------------17--15------|


E|--------------------------------------------------------------|
B|--------------------------------------------------------------|
G|--------------------------------------9--------------------6--|
D|--7--6-----9--9--7--6--9--9--9--7--6-----------9--9--7--6-----|
A|--------7-----------------------------------------------------|
E|--------------------------------------------------------------|


E|-------------------------------------------------------|
B|-------------------------------------------------------|
G|-------------------------------------------------------|
D|-------------------------------------------------------|
A|--7--9--10------12-----14--15--17--15--15--14--14--14--|
E|-------------------------------------------------------|


E|------------------------------------------------------|
B|------------------------------------------------------|
G|------------------------------------------------------|
D|------------------------------------------------------|
A|--16--------------16--14--12--11--9--12-------11--11--|
E|----------16--16--------------------------------------|


E|----------------------------------------------------------|-----------------------|
B|----------------------------------------------------------|-----------------------|
G|----------------------------------------------------------|--------9-----7--------|
D|--7--7--6-----7--6-------------7--6-----7--6--6--7--9--9--|-----7-----9--------7--|
A|-----------7--------7-------7--------7--------------------|--9--------------9-----|
E|----------------------------------------------------------|-----------------------|



Chorus/Estribillo: (x2)


E|---------------------------------------------------------------------------|
B|---------------------------------------------------------------------------|
G|---------------------------------------------------------------------------|
D|--12--14------12--12--14-------16--17--17--14--16--17--16--14--14--12--12--|
A|---------------------------------------------------------------------------|
E|---------------------------------------------------------------------------|


E|----------------------------------|
B|----------------------------------|
G|----------------------------------|
D|--17--17--16--16--14--12--12--14--|
A|----------------------------------|
E|----------------------------------|


E|---------------------------------------------------------------------------|
B|---------------------------------------------------------------------------|
G|---------------------------------------------------------------------------|
D|--12--14------12--12--14-------16--17--17--14--16--17--16--14--14--12--12--|
A|---------------------------------------------------------------------------|
E|---------------------------------------------------------------------------|


E|----------------------------------|
B|----------------------------------|
G|----------------------------------|
D|------12--14--15--15--15--15--15--|
A|--14------------------------------|
E|----------------------------------|



Outro:


E|-----------------------------|
B|-----------------------------|
G|--7-----2-----5-----7-----7--|
D|--7-----2-----5-----7-----7--|
A|--5-----0-----3-----5-----5--|
E|-----------------------------|
Página 1 / 1

Letras e título
Acordes e artista

resetar configurações
variar acorde