Cifra Club

Coração de Criança

Dragon Ball

Cifra: Principal (violão e guitarra)
tom: F#
Intro:

E|-------------------|
B|-8----8---8---8----|
G|---10---9---7------|
D|-------------------|
A|-------------------|
E|-------------------|

E|-3-3-----3-5-3----------------------------|
B|-----5-6-------6-5-3--5-5-----5-6-5-------|
G|--------------------------5-7-------7-5-2-|
D|------------------------------------------|
A|------------------------------------------|
E|------------------------------------------|
Seu sorriso é tão resplandecente, que deixou meu coração alegre

E|-----5-3----------------------------------|
B|---------------3-5-6-5-3---3-3---3-1-0-1--|
G|-2-5------(5)------------5----------------|
D|------------------------------------------|
A|------------------------------------------|
E|------------------------------------------|
Me dê a mão , prá fugir desta terrivel escuridão

E|------------------------------------------|
B|-1/5-5-5/12-------------------------------| (Não é necessário tocar)
G|------------------------------------------|
D|------------------------------------------|
A|------------------------------------------|
E|------------------------------------------|

E|-8-8-8-8-8-6-4-6-8-6----------------------|
B|------------------------------------------|
G|------------------------------------------|
D|------------------------------------------|
A|------------------------------------------|
E|------------------------------------------|
Desde o dia em que eu te reencontrei,

E|-6-6-6-6-6-4-3-4-6-4----------------------|
B|------------------------------------------|
G|------------------------------------------|
D|------------------------------------------|
A|------------------------------------------|
E|------------------------------------------|
Me lembrei daquele lindo lugar,

E|-4-4-4-4-4-3----------3--------3----------|
B|-------------6-4--4-6---4--4-6------------|
G|------------------------------------------|
D|------------------------------------------|
A|------------------------------------------|
E|------------------------------------------|
Que na minha infância era especial para mim

E|-3-4-6-8--8-8-8-8-8-6-4-6-8-6-------------|
B|------------------------------------------|
G|------------------------------------------|
D|------------------------------------------|
A|------------------------------------------|
E|------------------------------------------|
Quero saber se comigo você quer vir dançar,

E|-6-6-8-10-10-11---------------------------|
B|----------------11--9-8-9-----------------|
G|------------------------------------------|
D|------------------------------------------|
A|------------------------------------------|
E|------------------------------------------|
Se me der a mão eu te levarei,

E|------------------------------------------|
B|-9-11-9-9-8-------------------------------|
G|------------------------------------------|
D|------------------------------------------|
A|------------------------------------------|
E|------------------------------------------|
Por um caminho

E|----15-13-13--12--13-12-13----------------|
B|-8----------------------------------------|
G|------------------------------------------|
D|------------------------------------------|
A|------------------------------------------|
E|------------------------------------------|
Cheio de sombras e de luz.

E|-4-6-8-8-6-8-8-6-8------------------------|
B|------------------------------------------|
G|------------------------------------------|
D|------------------------------------------|
A|------------------------------------------|
E|------------------------------------------|
Você pode até não perceber,

E|-6-10-8-6-4-4-3-4-3-3-4-3-----------------|
B|------------------------------------------|
G|------------------------------------------|
D|------------------------------------------|
A|------------------------------------------|
E|------------------------------------------|
Mas o meu coração se amarrou em você,

E|-3-4-6-8-10---11-8------------------------|
B|------------------------------------------|
G|------------------------------------------|
D|------------------------------------------|
A|------------------------------------------|
E|------------------------------------------|
Que precisa de alguém

E|-8-10-12-8-12-10--------------------------|
B|------------------------------------------|
G|------------------------------------------|
D|------------------------------------------|
A|------------------------------------------|
E|------------------------------------------|
Pra te mostrar o amor

E|-10-12-10-12-14---------------------------|
B|------------------------------------------|
G|------------------------------------------|
D|------------------------------------------|
A|------------------------------------------|
E|------------------------------------------|
Que o mundo te dá...

E|-14-14-11-12-14-16-14-12-11-9-------------|
B|------------------------------------------|
G|------------------------------------------|
D|------------------------------------------|
A|------------------------------------------|
E|------------------------------------------|

Meu alegre coração palpita,

E|-11-11-------11-12-11---------------------|
B|-------12-14----------14-12-9-------------|
G|------------------------------------------|
D|------------------------------------------|
A|------------------------------------------|
E|------------------------------------------|
Por um universo de esperança.

E|-------16-14------9-11-12-11-9-----11---9-|
B|-9-12---------12---------------12---------|
G|------------------------------------------|
D|------------------------------------------|
A|------------------------------------------|
E|------------------------------------------|
Me dê a mão, a magia nos espera.

E|-14-14-11-12-14-16-14-12-11-9-------------|
B|------------------------------------------|
G|------------------------------------------|
D|------------------------------------------|
A|------------------------------------------|
E|------------------------------------------|
Vou te amar por toda a minha vida,

E|-11-11-------11-12-11---------------------|
B|-------12-14----------14-12-9-------------|
G|------------------------------------------|
D|------------------------------------------|
A|------------------------------------------|
E|------------------------------------------|
Vem comigo por este caminho.

E|------16-14----9-11-12-11-9-7-9-9-9-7-6-7-|
B|-9-12-------12----------------------------|
G|------------------------------------------|
D|------------------------------------------|
A|------------------------------------------|
E|------------------------------------------|
Me dê a mão, prá fugir desta terrivel escuridão.
00:00 / 00:00
Outros vídeos desta música
Repetir
Outros vídeos desta música
Compositor não encontrado.
Colaboração e revisão:
  • Yuri
  • Matheus felipe
39.970 exibições
    • ½ Tom
    • A
    • Bb
    • B
    • C
    • Db
    • D
    • Eb
    • E
    • F
    • F#
    • G
    • Ab
  • Adicionar à lista

    0 comentários

    Ver todos os comentários

    Conseguiu tocar?

    9 Tocaram 1 Ainda não

    Grave um vídeo tocando Coração de Criança e nos envie!

    Entre para oCifra Club PRO

    Tenha acesso a benefícios exclusivos no App e no Site

    • Chega de anúncios

    • Prioridade de compra em lançamentos

    • Mais recursos no app do Afinador

    • Atendimento Prioritário

    • Descontos nos produtos Cifra Club

    • Ajude a produzir mais conteúdo

    00:00 / 00:00

    Cifra Club Pro

    Aproveite o Cifra Club com benefícios exclusivos e sem anúncios
    Cifra Club Pro
    Aproveite o Cifra Club com benefícios exclusivos e sem anúncios
    OK