Cifra Club

Aprenda

Sorriso Resplandescente

Dragon Ball

Cifra: Completa-2 (violão e guitarra)
tom: C
[Intro] G

[Riff 1]

   G
E|------------------------------------------|
B|------------------------------------------|
G|-0---0---0---0----------------------------|
D|---3---2---0------------------------------|
A|------------------------------------------|
E|------------------------------------------|

[Refrão]

E|-3-3-----3-5-3----------------------------|
B|-----5-6-------6-5----5-5-----5-6-5-------|
G|-------------------7------5-7-------7-5-4-|
D|------------------------------------------|
A|------------------------------------------|
E|------------------------------------------|

E|-------/5-3-------------------------------|
B|---------------3-5-5/6-5-3----------------|
G|-2-2-5------5~-------------5-5/7-5-4-4-4/5|
D|------------------------------------------|
A|------------------------------------------|
E|------------------------------------------|

 C                     G            Am7               Em7         
Seu sorriso é tão resplandecente, que deixou meu coração alegre
F          Em7  Am           Dm           G           Ab  Bb  C    
  Me dê a mã_______o, pra fugir desta terrível escuridão

[Riff 2]
 
    Ab               Bb              C 
E|------------------------------------------|
B|-/9-8-------------/11--9-8----------------|
G|------10--8-7h8------------10-8h10-9~-----|
D|------------------------------------------|
A|------------------------------------------|
E|------------------------------------------|

[Primeira Parte]

Fm                    Bb             Gm
   Desde o dia em que eu te reencontrei
               Cm           Fm
Me lembrei daquele lindo lugar
                G            Cm          Eb
Que na minha infância era especial para mim
         Ab            Bb               Gm
Quero saber se comigo você quer vir dançar
             Cm            Fm
Se me der a mão eu te levarei
          G              Cm           Eb
Por um caminho cheio de sombras e de luz
      Ab            
Você pode até não perceber
               Gm
Mas o meu coração se amarrou em você
             Cm         F
Que precisa de alguém pra te mostrar
    Bb                 G
O amor que o mundo te dá

[Riff 1]

   G
E|------------------------------------------|
B|------------------------------------------|
G|-0---0---0---0----------------------------|
D|---3---2---0------------------------------|
A|------------------------------------------|
E|------------------------------------------|

[Refrão]

E|-3-3-----3-5-3----------------------------|
B|-----5-6-------6-5----5-5-----5-6-5-------|
G|-------------------7------5-7-------7-5-4-|
D|------------------------------------------|
A|------------------------------------------|
E|------------------------------------------|

E|-------/5-3-------------------------------|
B|----------------3-5-5/6-5-3-1--3/5-5p3-3~-|
G|-2-2-5------5~----------------------------|
D|------------------------------------------|
A|------------------------------------------|
E|------------------------------------------|

E|-3-3-----3-5-3----------------------------|
B|-----5-6-------6-5----5-5-----5-6-5-------|
G|-------------------7------5-7-------7-5-4-|
D|------------------------------------------|
A|------------------------------------------|
E|------------------------------------------|

E|-------/5-3-------------------------------|
B|---------------3-5-5/6-5-3----------------|
G|-2-2-5------5~-------------5-5/7-5-4-4-4/5|
D|------------------------------------------|
A|------------------------------------------|
E|------------------------------------------|

 C              G            Am7               Em7          
Meu alegre coração palpita, por um universo de esperança
F          Em7 Am          Dm        E  G
  Me dê a mã_______o, a magia nos espe_ra
 C                      G
Vou te amar por toda a minha vida
 Am7              Em7            
Vem comigo por este caminho
F          Em7  Am           Dm           G           
  Me dê a mã_______o, pra fugir desta terrível escuridão

[Ponte] C  Am  F  Ab  Bb
 
   C                         Am       
E|-------0------------0------------0--------|
B|---1-------1----1-------1----1-------1----|
G|-----0---0--------0---0--------2---2------|
D|------------------------------------------|
A|-3------------3------------0--------------|
E|------------------------------------------|

                F 
E|-------0------------1------------1--------|
B|---1-------1----1-------1----1-------1----|
G|-----2---2--------2---2--------2---2------|
D|------------------------------------------|
A|-0----------------------------------------|
E|--------------1------------1--------------|

   Ab           Bb
E|-------4------------6---------------------|
B|---4-------4----6-------6-----------------|
G|-----5---5--------7---7-------------------|
D|------------------------------------------|
A|------------------------------------------|
E|-4------------6---------------------------|

( C  G/B  Am  F )
( Ab  Bb  C )

[Segunda Parte]

Fm                Bb           Gm
   Haja o que houver eu te amarei
              Cm                   Fm
E Quero para sempre ao seu lado estar
            G                Cm             Eb
Deixe de pensar em tudo que já ficou para trás
         Ab               Bb             Gm
Quero saber se é comigo que você vai sonhar
                 Cm              Fm
Se não tenho alguém em quem confiar
          G                 Cm             Eb
Já não encontro o caminho que me leve a você
          Ab                 
Quando enfim consegui confessar
               Gm
Todo meu sentimento e desejo de amar
               Cm
Não sei o que me parou
     F             Bb                 G
Mas hoje eu vou lutar com tudo o que sou

[Refrão]

E|-3-3-----3-5-3----------------------------|
B|-----5-6-------6-5----5-5-----5-6-5-------|
G|-------------------7------5-7-------7-5-4-|
D|------------------------------------------|
A|------------------------------------------|
E|------------------------------------------|

E|-------/5-3-------------------------------|
B|----------------3-5-5/6-5-3-1--3/5-5p3-3~-|
G|-2-2-5------5~----------------------------|
D|------------------------------------------|
A|------------------------------------------|
E|------------------------------------------|

E|-3-3-----3-5-3----------------------------|
B|-----5-6-------6-5----5-5-----5-6-5-------|
G|-------------------7------5-7-------7-5-4-|
D|------------------------------------------|
A|------------------------------------------|
E|------------------------------------------|

E|-------/5-3-------------------------------|
B|---------------3-5-5/6-5-3----------------|
G|-2-2-5------5~-------------5-5/7-5-4-4-4/5|
D|------------------------------------------|
A|------------------------------------------|
E|------------------------------------------|

 C              G            Am7               Em7          
Meu alegre coração palpita, por um universo de esperança
F          Em7 Am          Dm        E  G
  Me dê a mã_______o, a magia nos espe_ra
 C                      G
Vou te amar por toda a minha vida
 Am7              Em7            
Vem comigo por este caminho
F          Em7  Am           Dm           G           Ab  Bb  C  
  Me dê a mã_______o, pra fugir desta terrível escuridão

[Riff 3]
 
    Ab               Bb               
E|------------------------------------------|
B|-/9-8-------------/11--9-8----------------|
G|------10--8-7h8------------10-------------|
D|------------------------------------------|
A|------------------------------------------|
E|------------------------------------------|

                             C  
E|------------------------------------------|
B|------------------------------------------|
G|-8h10-10-10-10-10-10/12-10-9~~------------|
D|------------------------------------------|
A|------------------------------------------|
E|------------------------------------------|
333.628 exibições
    • ½ Tom
    • A
    • Bb
    • B
    • C
    • Db
    • D
    • Eb
    • E
    • F
    • F#
    • G
    • Ab
  • Adicionar à lista

    0 comentários

    Ver todos os comentários

    Conseguiu tocar?

    78 Tocaram 10 Ainda não

    Grave um vídeo tocando Sorriso Resplandescente e nos envie!

    00:00 / 00:00
    outros vídeos desta música
    repetir qualidade Automático
    Outros vídeos desta música
    00:00 / 00:00
    Automático
    Capítulos
    • Apresentação / Equipamentos
    • Acordes introdução e primeiro refrão
    • Tocando introdução e primeiro refrão
    • Ensinando introdução
    • Ritmo primeiro refrão
    • Acordes primeira parte
    • Tocando primeira parte
    • Ritmo primeira parte
    • Ritmo passagem primeira parte
    • Tocando segunda parte
    • Acordes segundo refrão
    • Tocando segundo refrão
    • Dicas finais
    • Tocando a música
    • Encerramento

    Cifra Club Pro

    Aproveite o Cifra Club com benefícios exclusivos e sem anúncios
    Cifra Club Pro
    Aproveite o Cifra Club com benefícios exclusivos e sem anúncios
    OK