Cifra Club

Aprenda

Another Day Solo

Dream Theater

Cifra: Principal (violão e guitarra)
tom: Db
Tabbed by:Adam Duckworth
Email:L*

Tuning: Standard

I have come to the conclusion that the solos in Another Day by DT has either
mistakes or bits missing. So i decided to write my own tab for the song.
INCLUDING THE "FAST" BIT!!!!!!!

I'm Pretty sure this is very accurate. So enjoy playing an amzing solo from
an amazing song that will impress everybody that hears it.

Intro:  (guitar + piano arranjado para guitarra) 
 
E|------------------------------------------ 
B|--0--------0-----------0--------0--------- 
G|------3-------3------------3-------3-3----  (repete) 
D|--------4-------4------------4---------4--  
A|--------------------------------4--------- 
E|--4--------2--------2--0-------------2---- 
 
 
Intro solo: 
 
    Ab5         Gb5    E5            Db5    Gb5     Ab5        Gb5         Db5
E|----------------------------------------------------------------------------  
B|--12~---11--9-------------------------------------------------------------9- 
G|--------------8~-----------4--/8--6---4--3--6--4---6--3---4----------11----  
D|------------------------/6--------------------------~---------4?6--/9------- 
A|---------------------------------------------------------------------------- 
E|---------------------------------------------------------------------------- 
 
            E5
E|----------14~- 
B|--11-12------- 
G|-------------- 
D|-------------- 
A|-------------- 
E|-------------- 

Sax Solo is identical to intro solo although varies slighty because it is on a sax.

Sax Fill arr. Guitar

e|/19-19-------------------------------------------------------------------|
B|-------19-19-17-17-16----------------------------------------------------|
G|----------------------16-------------------------------------------------|
D|-------------------------------------------------------------------------|
A|-------------------------------------------------------------------------|
E|-------------------------------------------------------------------------|

Main Solo

E|-------------------------------------------------------------------|
B|-11^(12)-(12)-11-9-11^(12)~~~--9--12^(14)-12--11h12p11-------------|
G|-------------------------------------------------------11--6~~~----|
D|-------------------------------------------------------------------|
A|-------------------------------------------------------------------|
E|-------------------------------------------------------------------|

                                          |--3--|
e|-------------7~----------------------------------------------------|
B|-------4-5~~----4^(5)(4)---4-5-7--5-4------------------------------|
G|-3-4-6--------------------------------6--6-4-2-----2---------------|
D|------------------------------------------------6----6-4-4---------|
A|-------------------------------------------------------------------|
E|-------------------------------------------------------------------|

Here comes the "fast" bit
  |--------6--------||----------------12----------------|
e|-----------------------------------------------18-19-21------------|
B|--------------------------------------17-19-21---------------------|
G|----------13-15-16-----------16-18-20------------------------------|
D|-13-14-16-----------16-18-20---------------------------------------|
A|-------------------------------------------------------------------|
E|-------------------------------------------------------------------|

e|-21^(23)-21^(23)(21)-19-21^(23)--18-21-21^(23)(24)-21~~------------|
B|-------------------------------------------------------------------|
G|-------------------------------------------------------------------|
D|-------------------------------------------------------------------|
A|-------------------------------------------------------------------|
E|-------------------------------------------------------------------|

                   |---3---| 
e|-19-18~-19-21--19-16-----------------------------------------------|
B|---------------------19-16----19-16--------------------------------|
G|---------------------------18-------18-16----18-16~~---------------|
D|------------------------------------------18-----------------------|
A|-------------------------------------------------------------------|
E|-------------------------------------------------------------------|

     |---3---|
e|--------------------------------19---------------------------------|
B|--------------------------19-21------------------------------------|
G|----16-----------16-18-20------------------------------------------|
D|-16----18-16-------------------------------------------------------|
A|-------------18----------------------------------------------------|
E|-------------------------------------------------------------------|

                                                    |---5---|
e|-17~~---21-------19-------16-------14------11----------------------|
B|-----19----19-17----17-14----14-12----12-9----9-7-7-9-7-9-7--------|
G|-------------------------------------------------------------------|
D|-------------------------------------------------------------------|
A|-------------------------------------------------------------------|
E|-------------------------------------------------------------------|

   |-------10--------|
E|-------------------------------------------------------------------|
B|-5-7-5-7-5-4-5-4-5-4-----------------------------------------------|
G|----------------------6~-------------------------------------------|
D|-------------------------------------------------------------------|
A|-------------------------------------------------------------------|
E|-------------------------------------------------------------------|

| /  slide up
| \  slide down
| h  hammer-on
| p  pull-off
| ~  vibrato
| +  harmonic
| x  Mute note
|n^(x)bend note n to note x e.g 11^(12)
|n^(x)(n)bend note n to note x then back down to n e.g 4(5)(4)
============================================================================

And Thats it. Enjoy playin this song if you can the main solo is fairly difficult.
Email me if you have any comments, queries, corrections (unlikely) or if you just
want to say hi.
Colaboração e revisão:
  • Anna Gabriella
8.265 exibições
    • ½ Tom
    • A
    • Bb
    • B
    • C
    • Db
    • D
    • Eb
    • E
    • F
    • F#
    • G
    • Ab
  • Adicionar à lista

    0 comentários

    Ver todos os comentários

    Conseguiu tocar?

    0 Tocaram 0 Ainda não

    Grave um vídeo tocando Another Day Solo e nos envie!

    00:00 / 00:00
    outros vídeos desta música
    repetir qualidade Automático
    Outros vídeos desta música
    00:00 / 00:00
    Automático

    Cifra Club Pro

    Aproveite o Cifra Club com benefícios exclusivos e sem anúncios
    Cifra Club Pro
    Aproveite o Cifra Club com benefícios exclusivos e sem anúncios
    OK