Cifra Club

Aprenda

Metropolis - Part 1

Dream Theater

Cifra: Principal (violão e guitarra)
tom: E
   E
   Gtr.1(Distortion with Delay set to tempo)
   P.M._ _ _ _
E|----------------------|-----------------|
B|----------------------|-----------------|
G|----------------------|-----------------|
D|----------------------|-----------------|
A|----------------------|-----------------|
E|-0-0-0-0-0------------|-----------------|
 | Gtr.2(Distortion with Delay set to tempo)
 | P.M._ _ _ _
E|----------------------|-----------------|
B|----------------------|-----------------|
G|----------------------|-----------------|
D|----------------------|-----------------|
A|----------------------|-----------------|
E|-0-0-0-0-0------------|-----------------|
 
 
 
   Gtr.1
   P.M._ _ _ _ _ _ _ _ _
E|-----------------------|-----------------|
B|-----------------------|-----------------|
G|-----------------------|-----------------|
D|-----------------------|-----------------|
A|-----------------------|-----------------|
E|-0-0-0-0-0--------0----|-----------------|
 | Gtr.2
 | P.M._ _ _ _ _ _ _ _ _
E|-----------------------|-----------------|
B|-----------------------|-----------------|
G|-----------------------|-----------------|
D|-----------------------|-----------------|
A|-----------------------|-----------------|
E|-0-0-0-0-0--------0----|-----------------|
 
 
 
   Gtr.1
   P.M._ _ _ _ _ _ _ _ _
E|-----------------------|-----------------|
B|-----------------------|-----------------|
G|-----------------------|-----------------|
D|-----------------------|-----------------|
A|-----------------------|-----------------|
E|-0-0-0-0-0--------0-0--|-----------------|
 | Gtr.2
 | P.M._ _ _ _ _ _ _ _ _
E|-----------------------|-----------------|
B|-----------------------|-----------------|
G|-----------------------|-----------------|
D|-----------------------|-----------------|
A|-----------------------|-----------------|
E|-0-0-0-0-0--------0-0--|-----------------|
 
 
 
   Gtr.1
   P.M._ _ _ _ _ _ _ _ _
E|-----------------------|-----------------|
B|-----------------------|-----------------|
G|-----------------------|-----------------|
D|-----------------------|-----------------|
A|-----------------------|-----------------|
E|-0-0-0-0-0--------0----|-----------------|
 | Gtr.2
 | P.M._ _ _ _ _ _ _ _ _
E|-----------------------|-----------------|
B|-----------------------|-----------------|
G|-----------------------|-----------------|
D|-----------------------|-----------------|
A|-----------------------|-----------------|
E|-0-0-0-0-0--------0----|-----------------|
 
 
 
                                  F#5 G5  E5
   Gtr.1                (Distortion)
   P.M._ _ _ _                    >   >   >
E|----------------------|--------------------|
B|----------------------|--------------------|
G|----------------------|--------------------|
D|----------------------|---------4---5---2--|
A|----------------------|---------4---5---2--|
E|-0-0-0-0-0------------|---------2---3---0--|
 | Gtr.2                (Distortion)
 | P.M._ _ _ _
E|----------------------|--------------------|
B|----------------------|--------------------|
G|----------------------|--------------------|
D|----------------------|---------4---5---2--|
A|----------------------|---------4---5---2--|
E|-0-0-0-0-0------------|---------2---3---0--|
 
 
 
                            E   F#5 G5  C5
   Gtr.1
                            P.M.
E|-----------------|-----------------------|
B|-----------------|-----------------------|
G|-----------------|--------------------5--|
D|(2)--------------|(2)---------4---5---5--|
A|(2)--------------|(2)---------4---5---3--|
E|(0)--------------|(0)-----0-0-2---3------|
 | Gtr.2
 |                          P.M.>   >   >
E|-----------------|-----------------------|
B|-----------------|-----------------------|
G|-----------------|--------------------5--|
D|(2)--------------|(2)---------4---5---5--|
A|(2)--------------|(2)---------4---5---3--|
E|(0)--------------|(0)-----0-0-2---3------|
 
 
 
                                    F#5 G5  E5
   Gtr.1
                    ~~~~~~~~~~~ P.M.
E|----------3----------|-----------------------|
B|--------------3------|-----------------------|
G|(5)---------------5--|(5)--------------------|
D|(5)------------------|------------4---5---2--|
A|(3)------------------|------------4---5---2--|
E|---------------------|--------0-0-2---3---0--|
 | Gtr.2
 |                                  >   >   >
E|---------------------|-----------------------|
B|---------------------|-----------------------|
G|(5)------------------|(5)--------------------|
D|(5)------------------|(5)---------4---5---2--|
A|(3)------------------|(3)---------4---5---2--|
E|---------------------|--------x-x-2---3---0--|
 
 
 
                                 F#5 G5  C5
   Gtr.1               *
              o  \ slack /    \
E|-------------------|----------------------|
B|-------------------|----------------------|
G|------------4------|(0)-0--------------5--|     *Open G create from
D|(2)----------------|-----------4---5---5--|      slack hitting fretboard
A|(2)----------------|-----------4---5---3--|
E|(0)----------------|-----------2---3------|
 | Gtr.2
E|-------------------|----------------------|
B|-------------------|----------------------|
G|-------------------|-------------------5--|     
D|(2)----------------|(2)--------4---5---5--|      
A|(2)----------------|(2)--------4---5---3--|
E|(0)----------------|(0)--------2---3------|
 
 
 
                                            F#5 G5  E5
   Gtr.1
E|---------------------|-------------------------------|
B|---------------------|-------------------------------|
G|(5)-------5--/7--/9--|/11----------------------------|
D|(5)-------x----------|--------------------4---5---2--|
A|(3)-------3--/5--/7--|-/9--10-9-10-9-10-9-4---5---2--|
E|---------------------|--------------------2---3---0--|
 | Gtr.2
E|---------------------|-------------------------------|
B|---------------------|-------------------------------|
G|(5)------------------|(5)----------------------------|
D|(5)------------------|(5)-----------------4---5---2--|
A|(3)------------------|(3)-----------------4---5---2--|
E|---------------------|--------------------2---3---0--|
 
 
 
                                                F#5 G5  C5
   Gtr.1
E|-----------------------------|---------------------------|
B|-----------------------------|---------------------------|
G|-----------------------------|------------------------5--|
D|(2)--------------------------|----------------4---5---5--|
A|(2)-----7-------7-----7------|---7-----7------4---5---3--|
E|(0)-0-0----0-0----0-0----0-0-|-----0-0----0-0-2---3------|
 |
E|-----------------------------|---------------------------|
B|-----------------------------|---------------------------|
G|-----------------------------|------------------------5--|
D|(2)--------------------------|(2)-------------4---5---5--|
A|(2)--------------------------|(2)-------------4---5---3--|
E|(0)--------------------------|(0)-------------2---3------|
 
 
 
                                     F#5 G5  E5
   Gtr.1
     \-1/2/\-1/2/\-1/2/\-1/2/\-1/2/\-1/2/
E|-----------------------|----------------------|
B|-----------------------|----------------------|
G|(5)---12---\11---\9----|\7---\5---\4---2------|
D|(5)----x---------------|---------------2---2--|
A|(3)---10----\9---\7----|\5---\3---\2---0---2--|
E|-----------------------|-------------------0--|
 | Gtr.2                             >   >   >
E|-----------------------|----------------------|
B|-----------------------|----------------------|
G|(5)--------------------|(5)-------------------|
D|(5)--------------------|(5)--------4---5---2--|
A|(3)--------------------|(3)--------4---5---2--|
E|-----------------------|-----------2---3---0--|
 
 
 
                                                     F#5 G5  C5
   Gtr.1
E|----0-----0-0-----0-0-----0-0-|------0-0-------0-0------------|
B|----0—3/5-----5/7-----7/8-----|-8/10-----10/12----------------|
G|------------------------------|----------------------------5--|
D|(2)---------------------------|--------------------4---5---5--|
A|(2)---------------------------|--------------------4---5---3--|
E|(0)---------------------------|--------------------2---3------|
 | Gtr.2
E|------------------------------|-------------------------------|
B|------------------------------|-------------------------------|
G|------------------------------|----------------------------5--|
D|(2)---------------------------|(2)-----------------4---5---5--|
A|(2)---------------------------|(2)-----------------4---5---3--|
E|(0)---------------------------|(0)-----------------2---3------|
 
 
 
                                     F#5 G5  E5
   Gtr.1                       ~~~~~~
E|---------------------|------------------------|
B|---------------------|------------------------|
G|(5)-------5--/7--/9--|/11--/12----------------|
D|(5)-------x----------|-------------4---5---2--|
A|(3)-------3--/5--/7--|-/9--/10-----4---5---2--|
E|---------------------|-------------2---3---0--|
 | Gtr.2
E|---------------------|------------------------|
B|---------------------|------------------------|
G|(5)------------------|(5)---------------------|
D|(5)------------------|(5)----------4---5---2--|
A|(3)------------------|(3)----------4---5---2--|
E|---------------------|-------------2---3---0--|
 
 
 
 
   Gtr.1      o  o o o   ~~~~~~~~~~~~~~       
                 __3__
E|---------------------|---------------------|
B|---------------------|---------------------|
G|-------------------5-|(5)------------------|
D|(2)--------------5---|---------------------|
A|(2)------------5-----|---------------------|
E|(0)---------4--------|---------------(17)\-|
 | Gtr.2
E|---------------------|---------------------|
B|---------------------|---------------------|
G|---------------------|---------------------|
D|(2)------------------|(2)------------------|
A|(2)------------------|(2)------------------|
E|(0)------------------|(0)------------------|
 
 
 
   N.C.             E(+5)     N.C.              D5    G5
   Gtr.1
  P.M._ _ _ _ _ _ _           P.M._ _     P.M._    
E|--------------------------|-----------------------------|
B|--------------------------|-----------------------------|
G|------------------5-------|-------------------7---x-7---|
D|-2-2-2-2-2--2-2-2-2-------|-------------------7---x-5---|
A|--------------------------|-7-7-7-7-7^0-5-5-5-5---------|
E|--------------------------|-----------------------------|
 
 
 
   N.C.             E5        N.C.              D5    G5
   Gtr.1
  P.M._ _ _ _ _ _ _           P.M._ _     P.M._    
E|--------------------------|-----------------------------|
B|--------------------------|-----------------------------|
G|------------------4-------|-------------------7---x-7---|
D|-2-2-2-2-2--2-2-2-2-------|-------------------7---x-5---|
A|--------------------------|-7-7-7-7-7^0-5-5-5-5---------|
E|--------------------------|-----------------------------|
 
 
 
   N.C.             E(+5)     N.C.              
   Gtr.1                                    _____6_____ _____6_____
  P.M._ _ _ _ _ _ _           P.M._ _ _ _ _ _ _ _ _ _ _ _ _ _ _ _ _    
E|--------------------------|---------------------------------------|
B|--------------------------|---------------------------------------|
G|------------------5-------|---------------5-4-2-------------------|
D|-2-2-2-2-2--2-2-2-2-------|-2-2-2-2-2--2--------5-4-2-------------|
A|--------------------------|---------------------------5-3-2-------|
E|--------------------------|---------------------------------5-3-2-|
 
 
 
                    E5        N.C.              
   Gtr.1                                    _____6_____ _____6_____
  P.M._ _ _ _ _ _ _           P.M._ _ _ _ _ _ _ _ _ _ _ _ _ _ _ _ _    
E|--------------------------|---------------------------------------|
B|--------------------------|---------------------------------------|
G|------------------4-------|---------------5-4-2-------------------|
D|-2-2-2-2-2--2-2-2-2-------|-2-2-2-2-2--2--------5-4-2-------------|
A|--------------------------|---------------------------5-3-2-------|
E|--------------------------|---------------------------------5-3-2-|
 
 
 
  (Em)
   Gtr.1
   P.M._ _ _ _ _ _ _ _ _ _ _ _ _ _ _ _ _ _ _ _ _ _ _ _ _ _ _ _ _ _ _ _ _ _ _ _
   __3__      __3__ __3__      __3__      __3__      __3__ __3__      __3__     
E|--------------------------------------|--------------------------------------|
B|--------------------------------------|--------------------------------------|
G|--------------------------------------|--------------------------------------|
D|--------------------------------------|--------------------------------------|
A|--------------------------------------|--------------------------------------|
E|-0-0-0-0----0-0-0-0-0-0-0----0-0-0-0--|-0-0-0-0----0-0-0-0-0-0-0----0-0-0-0--|
 
 
 
  (C/E)                                  (D/E)               (F#/E) (G/E) (C/E)    
   Gtr.1
   _ _ _ _ _ _ _ _ _ _ _ _ _ _ _ _ _ _ _ _ _ _ _ _ _ _ _ _ _ _ _ _ _ _ _ _ _ _
   __3__      __3__ __3__      __3__      __3__      __3__ __3__      __3__     
E|--------------------------------------|--------------------------------------|
B|--------------------------------------|--------------------------------------|
G|--------------------------------------|--------------------------------------|
D|--------------------------------------|--------------------------------------|
A|--------------------------------------|--------------------------------------|
E|-0-0-0-0----0-0-0-0-0-0-0----0-0-0-0--|-0-0-0-0----0-0-0-0-0-0-0----0-0-0-0--|
                                                                           The
 
 
 
                                                           (F#/E) (G/E)  (Em)    
   Gtr.1
   _ _ _ _ _ _ _ _ _ _ _ _ _ _ _ _ _ _ _ _ _ _ _ _ _ _ _ _ _ _ _ _ _ _ _ _ _ _
   __3__      __3__ __3__      __3__      __3__      __3__ __3__      __3__     
E|--------------------------------------|--------------------------------------|
B|--------------------------------------|--------------------------------------|
G|--------------------------------------|--------------------------------------|
D|--------------------------------------|--------------------------------------|
A|--------------------------------------|--------------------------------------|
E|-0-0-0-0----0-0-0-0-0-0-0----0-0-0-0--|-0-0-0-0----0-0-0-0-0-0-0----0-0-0-0--|
  smile  of_  dawn_                ar -  rived ear - ly_ May._             She
 
 
 
                                                           (F#/E) (G/E)  (C/E)    
   Gtr.1
   _ _ _ _ _ _ _ _ _ _ _ _ _ _ _ _ _ _ _ _ _ _ _ _ _ _ _ _ _ _ _ _ _ _ _ _ _ _
   __3__      __3__ __3__      __3__      __3__      __3__ __3__      __3__     
E|--------------------------------------|--------------------------------------|
B|--------------------------------------|--------------------------------------|
G|--------------------------------------|--------------------------------------|
D|--------------------------------------|--------------------------------------|
A|--------------------------------------|--------------------------------------|
E|-0-0-0-0----0-0-0-0-0-0-0----0-0-0-0--|-0-0-0-0----0-0-0-0-0-0-0----0-0-0-0--|
  car - ried_ a gift from_ her home.___________________                    The
 
 
 
                                                           (F#/E) (G/E)  (Em)    
   Gtr.1
   _ _ _ _ _ _ _ _ _ _ _ _ _ _ _ _ _ _ _ _ _ _ _ _ _ _ _ _ _ _ _ _ _ _ _ _ _ _
   __3__      __3__ __3__      __3__      __3__      __3__ __3__      __3__     
E|--------------------------------------|--------------------------------------|
B|--------------------------------------|--------------------------------------|
G|--------------------------------------|--------------------------------------|
D|--------------------------------------|--------------------------------------|
A|--------------------------------------|--------------------------------------|
E|-0-0-0-0----0-0-0-0-0-0-0----0-0-0-0--|-0-0-0-0----0-0-0-0-0-0-0----0-0-0-0--|
   night     shed     a     tear    to    tell    her_   of   fear   and_   of
 
 
 
                                                           (F#/E) (G/E)  (C/E)    
   Gtr.1
   _ _ _ _ _ _ _ _ _ _ _ _ _ _ _ _ _ _ _ _ _ _ _ _ _ _ _ _ _ _ _ _ _ _ _ _ _ _
   __3__      __3__ __3__      __3__      __3__      __3__ __3__      __3__     
E|--------------------------------------|--------------------------------------|
B|--------------------------------------|--------------------------------------|
G|--------------------------------------|--------------------------------------|
D|--------------------------------------|--------------------------------------|
A|--------------------------------------|--------------------------------------|
E|-0-0-0-0----0-0-0-0-0-0-0----0-0-0-0--|-0-0-0-0----0-0-0-0-0-0-0----0-0-0-0--|
   sor - row  and   pain._       She'll   nev - er_  out - grow.
 
 
 
                                                         F#5 G5   B2
   Gtr.1
   _ _ _ _ _ _ _ _ _ _ _ _ _ _ _ _ _ _ _ _ _ _ _ _ _ _ _ 
   __3__      __3__ __3__      __3__      __3__       
E|--------------------------------------|----------------------------|
B|--------------------------------------|----------------------------|
G|--------------------------------------|-------------------------4--|
D|--------------------------------------|----------------4---5----4--|
A|--------------------------------------|----------------4---5----2--|
E|-0-0-0-0----0-0-0-0-0-0-0----0-0-0-0--|-0-0-0-0----0-0-2---3-------|
   Death is   the   first      dance, e - ter - nal.
 
 
 
                                    G5       D/F#
   Gtr.1
E|------2--------------|------------3-------------|
B|-----------2---------|------------3--------3----|
G|(4)-------------4----|9-----------0--------2----|
D|(4)------------------|8-4---------0--------0----|
A|(2)------------------|-------2----x--------x----|
E|---------------------|------------3--------2----|
     There's no__ more    free - dom._______
 
 
 
    B5                                E5     A5
    Gtr.1                    ~~~~~~~~~
E|----------------------|-------------------------|
B|----------------------|-------------------------|
G|4-4--------4---/6-/7--|9-/11---------------2----|
D|4-4--------x----------|8------------2------2----|
A|--2--------2---/4-/5--|---/9--------2------0----|
E|----------------------|-------------0-----------|
       The  both_ of you____    will__ be___ con -
 
 
 
    C5                                
    Gtr.1              P.M.           P.M._ _ _ _ _ _ _ _ _ _
E|-------------------------|----------------------------------|
B|---------------7--8------|--7-------------------------------|
G|4-5--------5---5—-5------|9-5--5----------------------------|
D|4-5--------5-------------|8-5--5----------------------------|
A|--3--------3---------3-3-|----------3-3---------------------|
E|-------------------------|--------------3-3-3-3-3-3-2-2-2-2-|
    firmed.__                             to_______   this____
 
 
 
    E5
    Gtr.1
E|-------------------|------------------|
B|-------------------|------------------|
G|4------------------|------------------|
D|4-2----------------|(2)---------------|
A|--2----------------|(2)---------------|
E|--0----------------|(0)---------------|
    ________  mind.
 
 
 
 
   Gtr.1
E|------------------|------------------|
B|------------------|------------------|
G|------------------|------------------|
D|(2)---------------|(2)---------------|
A|(2)---------------|(2)---------------|
E|(0)---------------|(0)---------------|
 
 
 
   F#sus2                    Asus4
   Gtr.3(Clean)
E|-2----------------|(2)-----5----------|--(5)---5----------|
B|-2----------------|(2)-----3----------|--(3)---3----------|
G|-4----------------|(4)-----2----------|7-(2)---2----------|
D|-4----------------|(4)-----0----------|8-(0)---0----------|
A|------------------|--------0----------|--(0)---0----------|
E|-2----------------|(2)----------------|-------------------|
     I was told_there's a mir-a-cle__for each day_that I try
 
 
 
    F#sus2                    Asus4
    Gtr.3
E|--2----------------|(2)-----5----------|--(5)---5----------|
B|--2----------------|(2)-----3----------|--(3)---3----------|
G|4-4----------------|(4)-----2----------|7-(2)---2----------|
D|4-4----------------|(4)-----0----------|8-(0)---0----------|
A|-------------------|--------0----------|--(0)---0----------|
E|--2----------------|(2)----------------|-------------------|
I was told there's a new_love that's born_for each one that has died._
 
 
 
    F#sus2                    Asus4
    Gtr.3
E|--2----------------|(2)-----5----------|--(5)---5----------|
B|--2----------------|(2)-----3----------|--(3)---3----------|
G|4-4----------------|(4)-----2----------|7-(2)---2----------|
D|4-4----------------|(4)-----0----------|8-(0)---0----------|
A|-------------------|--------0----------|--(0)---0----------|
E|--2----------------|(2)----------------|-------------------|
I was told_there'd be no one_to call_on when I feel a-lone_and a-fraid._
 
 
 
    F#sus2                    Asus4        Gsus2      Bsus4
    Gtr.3
E|--2----------------|(2)-----5----------|------5-----------2-----|
B|--2----------------|(2)-----3----------|---------8-----------5--|
G|4-4----------------|(4)-----2----------|-7----------4-----------|
D|4-4----------------|(4)-----0----------|-5-------------4--------|
A|-------------------|--------0----------|------------------------|
E|--2----------------|(2)----------------|------------------------|
I was told_if you dream of the next_world. You'll find your-self__
 
 
 
   GaddA                    Em addF#
   Gtr.1
E|------------------------|-----------------------|
B|------------------------|-----------------------|
G|------------------------|-----------------------|
D|------------------------|-------------------x\--|
A|------------------------|-------------------x\--|
E|------------------------|-----------------------|
 | Gtr.3
E|---------------3--------|----------------0------|
B|------------3-----------|-------------0---------|
G|---------4--------4-----|----------0------------|
D|------7--------------7--|-------4---------------|
A|------------------------|----2------------------|
E|-3----------------------|-0---------------------|
   swim-ming  in    a      lake  of    fire.
 
 
 
   Bm                      G
   Gtr.1             P.M.                    P.M.
E|----------2------------|-3----x-x-3------------|
B|----------3------------|-3----x-x-3------------|
G|-4----x-x-4------------|-4----x-x-4------------|
D|-4----x-x-4------------|-5----x-x-5------------|
A|-2----x-x-2--------2-2-|-5----x-x-5--------5-5-|
E|-----------------------|-3----x-x-3--------3-3-|
    As a child,_  I thought I could live with-out
 
 
 
   Em                    F#5      A5
   Gtr.1
E|-2----x-x-2----------|-------------------|
B|-5----x-x-5----------|-------------------|
G|-4----x-x-4----------|-------------------|
D|-2----x-x-2----------|-4--------7--------|
A|-2----x-x-2----------|-4--------7--------|
E|-0----x-x-0----------|-2--------5--------|
   pain,_      with-out  sor  -  row.
 
 
 
   Bm                    G
   Gtr.1                                 
E|---------------------|-3----x-x-3----------|
B|-3----x-x-3----------|-3----x-x-3----------|
G|-4----x-x-4----------|-4----x-x-4----------|
D|-4----x-x-4----------|-5----x-x-5----------|
A|-2----x-x-2----------|-5----x-x-5----------|
E|---------------------|-3----x-x-3----------|
    As a man,_I've found it's all caught up with
 
 
 
   E5                    D5       A5
   Gtr.1
E|---------------------|-------------------|
B|-5----x-x-5----------|-3-----------------|
G|-4----x-x-4----------|-2--------2--------|
D|-2----x-x-2----------|-0--------2--------|
A|-2----x-x-2----------|----------0--------|
E|-0----x-x-0----------|-------------------|
   me._      I'm a-sleep yet I'm so a-fraid._
 
 
 
   N.C.             E(+5)     N.C.              D5    G5
   Gtr.1
  P.M._ _ _ _ _ _ _           P.M._ _     P.M._    
E|--------------------------|-----------------------------|
B|--------------------------|-----------------------------|
G|------------------5-------|-------------------7---x-7---|
D|-2-2-2-2-2--2-2-2-2-------|-------------------7---x-5---|
A|--------------------------|-7-7-7-7-7^0-5-5-5-5---------|
E|--------------------------|-----------------------------|
   _______________________________________________________
 
 
 
   N.C.             E5        N.C.                         D5     G5
   Gtr.1
  P.M._ _ _ _ _ _ _           _____6_____ _____6_____ _____6_____ _____6_____
E|--------------------------|-3-2-3-2---2-3-2-3-2---2-5-2-5-2---2-3-2---------|
B|--------------------------|---------5-----------5-----------5-------5-3-----|
G|------------------4-------|---------------------------------------------4-2-|
D|-2-2-2-2-2--2-2-2-2-------|-------------------------------------------------|
A|--------------------------|-------------------------------------------------|
E|--------------------------|-------------------------------------------------|
   ____________________________________________________
 
 
 
   N.C.             E(+5)     N.C.              D5    G5
   Gtr.1
  P.M._ _ _ _ _ _ _           P.M._ _     P.M._    
E|--------------------------|-----------------------------|
B|--------------------------|-----------------------------|
G|------------------5-------|-------------------7---x-7---|
D|-2-2-2-2-2--2-2-2-2-------|-------------------7---x-5---|
A|--------------------------|-7-7-7-7-7^0-5-5-5-5---------|
E|--------------------------|-----------------------------|
   Some - where__     like a  scene from a  mem - o - ry.
                                            (Scene from a
 
 
   N.C.             E5        N.C.              D5    G5
   Gtr.1
  P.M._ _ _ _ _ _ _           P.M._ _     P.M._    
E|--------------------------|-----------------------------|
B|--------------------------|-----------------------------|
G|------------------4-------|-------------------7---x-7---|
D|-2-2-2-2-2--2-2-2-2-------|-------------------7---x-5---|
A|--------------------------|-7-7-7-7-7^0-5-5-5-5---------|
E|--------------------------|-----------------------------|
          There's a pic-ture worth a thous-and words._
   mem-o-ry._________)                                (Oh!_
 
 
   N.C.             E(+5)     N.C.              D5    G5
   Gtr.1
  P.M._ _ _ _ _ _ _           P.M._ _     P.M._    
E|--------------------------|-----------------------------|
B|--------------------------|-----------------------------|
G|------------------5-------|-------------------7---x-7---|
D|-2-2-2-2-2--2-2-2-2-------|-------------------7---x-5---|
A|--------------------------|-7-7-7-7-7^0-5-5-5-5---------|
E|--------------------------|-----------------------------|
       E-lud-ing stares_from  fa - ces    be - fore   me
   ____)                                       (fac-es be-
 
 
   N.C.             E5        N.C.              D5    G5
   Gtr.1
  P.M._ _ _ _ _ _ _           P.M._ _     P.M._    
E|--------------------------|-----------------------------|
B|--------------------------|-----------------------------|
G|------------------4-------|-------------------7---x-7---|
D|-2-2-2-2-2--2-2-2-2-------|-------------------7---x-5---|
A|--------------------------|-7-7-7-7-7^0-5-5-5-5---------|
E|--------------------------|-----------------------------|
        It hides a-way_and will nev - er  be  heard  of a-
   fore       me.______)  
 
 
 
   N.C.             E(+5)     N.C.            F#5 G5  B5
   Gtr.1
  P.M._ _ _ _ _ _ _           P.M._ _     P.M._    
E|--------------------------|----------------------------|
B|--------------------------|----------------------------|
G|------------------5-------|-------------------------4--|
D|-2-2-2-2-2--2-2-2-2-------|-----------------4---5---4--|
A|--------------------------|-7-7-7-7-7^0-5-5-4---5---2--|
E|--------------------------|-----------------2---3------|
   gain.      De-ceit is the sec-ond_ with-out_ end._
 
 
 
                                                                      G5     D5/F#
  Gtr.1 _____6_____ _____6_____ _____6_____   _____6_____ _____6_____
E|-----------------------------------------|--------------------------------------|
B|------5^0^5^0^5^0^5^0^5^0^5^0^5^0^5^0^5^0|-^5^0^5^0^5^0^5^0^5^0^5^0-3------3----|
G|(4)--------------------------------------|9-------------------------0------2----|
D|(4)--------------------------------------|8-------------------------0------0----|
A|(2)--------------------------------------|--------------------------x------x----|
E|-----------------------------------------|--------------------------3------2----|
     The cit-y's cold_ blood teach - es       us  to   sur - vive.____________
 
 
    
    B5/F#                             E5     D5
    Gtr.1     ____3____~~~~~~~~~~~~~~~
E|------------------------|-----------------------|
B|------------------------|-----------------------|
G|4-4---------------------|9----------9------7----|
D|4-4---------------------|8----------9------7----|
A|--2---------2---4---5---|-(5)-------7------5----|
E|--2-------2-------------|-----------0-----------|
  Just keep my heart_in_your_eyes and we'll stay a-
 
 
 
    C5
    Gtr.1      P.M.  P.M.  P.M._ _  P.M.       P.M._ _ _ _ _ _ _ _
E|---------------------------|-------------------------------------|
B|-----------5-----7-----8---|----7--------------------------------|
G|4-5----------5-----5-----5-|9-----5-----5----0-2-0---------------|
D|4-5------------5-----5-----|8-5-----5--x-----------4-2-0---------|
A|---------------------------|----------x------------------3-2-0---|
E|---------------------------|-----------------------------------3-|
    live.____                              The third           ar -
 
 
 
     E5                                      G5   E5     D5   D(5)/C#
     Gtr.1
E|--------------------|------------------|---------------------------|
B|--------------------|------------------|---------------------------|
G|12------------------|------------------|10-7-----------------------|
D|-8-2----------------|(2)---------------|-8-5----9------7----7------|
A|---2----------------|(2)---------------|--------7------5----4------|
E|---0----------------|(0)---------------|---------------------------|
               rives.__________
 
 
 
    N.C.(Bm addC#)        (AaddB)
    Gtr.1
    P.M._ _ _ _ _ _ _ _ _ _ _ _ _ _ _ _ _ _ _ _ _
E|----------------------|-------------------------|
B|----------------------|-------------------------|
G|6---------------------|7------------------------|
D|8-------11-----9-9----|8-------9------9---------|
A|-----9------9---------|-----7-----7-7----7------|
E|--7----------------7--|--5------------------5-5-|
 
 
 
 
   (Bm addC#)             (GaddA)      (Am addB)
    Gtr.1
    P.M._ _ _ _ _ _ _ _ _ _ _ _ _ _     P.M._ _ _
E|----------------------|-------------------------|
B|----------------------|-------------------------|
G|6---------------------|7------------------------|
D|8-------11-----9-9----|8-------7------9---------|
A|-----9------9---------|-----5----5/7----7-------|
E|--7----------------7--|--3------------------5-5-|
 
 
 
 
   (Bm addC#)        (AaddB)
    Gtr.1
    P.M._ _ _ _ _ _ _ _ _ _ _ _ _ _ _ _ _ _ _ _ _
E|----------------------|-------------------------|
B|----------------------|-------------------------|
G|6---------------------|7------------------------|
D|8-------11-----9-9----|8-------9------9---------|
A|-----9------9---------|-----7-----7-7----7------|
E|--7----------------7--|--5------------------5-5-|
 
 
 
 
   (Bm addC#)             (GaddA)      (Am addB)
    Gtr.1
    P.M._ _ _ _ _ _ _ _ _ _ _ _ _ _     P.M._ _ _
E|----------------------|------------------------|
B|----------------------|------------------------|
G|6---------------------|7-----------------------|
D|8-------11-----9-9----|8-------7------9--------|
A|-----9------9---------|-----5----5/7----7------|
E|--7----------------7--|--3------------------5--|
 
 
 
 
    (Bm)                               (A)
     Gtr.4
E|----------------------------------|----------12------12----------|
B|------------17--------15-15-------|------------------------------|
G|6-----16--------16----------16----|7-----12------12------12------|
D|8-12------------------------------|8-11----------------------11--|
A|----------------------------------|------------------------------|
E|----------------------------------|------------------------------|
 |   Gtr.5
E|----------------------------------|------------------------------|
B|----------------------------------|------------------------------|
G|6-----------18--------16-16-------|7---------16------16----------|
D|8-----16-16-----16-16-------16-16-|8-----14------14------14------|
A|--14------------------------------|--12----------------------12--|
E|----------------------------------|------------------------------|
 
 
 
 
    (Bm)                          G
     Gtr.4
E|----------------------------|-------------------19----------|
B|----------17------15-15-----|--------------17-------17------|
G|6-----16------16--------16--|7---------18-------------------|
D|8-12------------------------|8-----16-------------------11--|
A|----------------------------|--14---------------------------|
E|----------------------------|-------------------------------|
 |   Gtr.5
E|----------------------------|-------------------------------|
B|----------------------------|-------------------------------|
G|6---------18------16-16-----|7------------------19----------|
D|8-----16------16--------16--|8---------19—16^17-----17------|
A|--14------------------------|------17-------------------12--|
E|----------------------------|--15---------------------------|
 
 
 
 
    (Bm)                               (A)
     Gtr.4
E|----------------------------------|----------12------12----------|
B|------------17--------15-15-------|------------------------------|
G|6-----16--------16----------16----|7-----12------12------12------|
D|8-12------------------------------|8-11----------------------11--|
A|----------------------------------|------------------------------|
E|----------------------------------|------------------------------|
 |   Gtr.5
E|----------------------------------|------------------------------|
B|----------------------------------|------------------------------|
G|6-----------18--------16-16-------|7---------16------16----------|
D|8-----16-16-----16-16-------16-16-|8-----14------14------14------|
A|--14------------------------------|--12----------------------12--|
E|----------------------------------|------------------------------|
 
 
 
 
    (Bm)                          G
     Gtr.4
E|----------------------------|-------------------19----------|
B|----------17------15-15-----|--------------17-------17------|
G|6-----16------16--------16--|7---------18-------------------|
D|8-12------------------------|8-----16-------------------11--|
A|----------------------------|--14---------------------------|
E|----------------------------|-------------------------------|
 |   Gtr.5
E|----------------------------|-------------------------------|
B|----------------------------|-------------------------------|
G|6---------18------16-16-----|7------------------19----------|
D|8-----16------16--------16--|8---------19—16^17-----17------|
A|--14------------------------|------17-------------------12--|
E|----------------------------|--15---------------------------|
 
 
 
    
    Gtr.4
E|------------------19------------|
B|-------------17-------17--------|
G|---------18---------------14----|
D|-----16-------------------------|
A|-14-----------------------------|
E|--------------------------------|
 |  Gtr.5
E|--------------------------------|
B|--------------------------------|
G|------------------19------------|
D|---------19—16^17-----17--------|
A|-----17-------------------16^14-|
E|-15-----------------------------|
 
 
 
 
   (Bm)
    Gtr.1
    __3__  __3__  ___3___ ___3___ ___3___ ___3___  
E|------------------------------------------------|
B|------------------------------------------------|
G|6-----------------------------------------------|
D|8---------------------------------------9-11-12-|
A|---------7-9-10---------9-10-12-9-10-12---------|
E|--7-9-10--------9-10-12-------------------------|
 
 
 
 
   (A)
    Gtr.1
    ___3___ ___3___  ___3___  ___3___  ___3___  ___3___  ___3___
E|---------------------------------------------------------------|
B|---------------------------------------------12-14-15-12-14-15-|
G|7---------9-11-12----------11-12-14-11-12-14-------------------|
D|8-9-11-12---------11-12-14-------------------------------------|
A|---------------------------------------------------------------|
E|---------------------------------------------------------------|
 
 
 
 
   (Bm)
    Gtr.1
     ___3___  ___3___  ___3___  ___3___  ___3___  ___3___
E|--12-14-15----------14-15-17-17-15-14-------------------|
B|-----------14-15-17-------------------17-15-14----------|
G|6----------------------------------------------16-14-12-|
D|8-------------------------------------------------------|
A|--------------------------------------------------------|
E|--------------------------------------------------------|
 
 
 
 
    (G)
     Gtr.1
     ___3___  ___3___  ___3___  ___3___  ___3___  ___3___  ___3___
E|-----------------------------------------------------------------|
B|-----------------------------------------------------------------|
G|7----------------------------------------------------------------|
D|8-16-14-12-------------------------------------------------------|
A|-----------16-14-12-------------------14-16-17----------16-17-19-|
E|--------------------15-14-12-14-15-17----------15-17-19----------|
 
 
 
 
   (Bm)
    Gtr.1
     ___3___  ___3___  ___3___  ___3___  ___3___  ___3___
E|--------------------------------------------------------|
B|--------------------------------------------------------|
G|6----------------------------------------------14-16-18-|
D|8----------14-16-17----------16-17-19-14-16-17----------|
A|--14-16-17----------16-17-19----------------------------|
E|--------------------------------------------------------|
 
 
 
 
    (A)
     Gtr.1
     ___3___  ___3___  ___3___  ___3___  ___3___  ___3___  ___3___
E|-----------------------------------------------------------------|
B|-----------------------------14-15-17----------------------------|
G|7----------16-18-19-12-14-16-------------------------------------|
D|8-16-17-19-------------------------------------17-19-21----------|
A|--------------------------------------------------------17-19-21-|
E|--------------------------------------17-19-21-------------------|
 
 
 
 
   (Bm)
    Gtr.1
     ___3___  ___3___  ___3___  ___3___  ___3___  ___3___
E|-----------------------------------------------19-22-21-|
B|--------------------------------------19-20-22----------|
G|6-18-19-21----------18-19-21-18-19-21-------------------|
D|8----------17-19-21-------------------------------------|
A|--------------------------------------------------------|
E|--------------------------------------------------------|
 
 
 
 
    (G)
     Gtr.1
     1   1          ~~~~~~~~
E|--21b—21b-r-----22b-------|
B|------------19------------|
G|7-------------------------|
D|8-------------------------|
A|--------------------------|
E|--------------------------|
 |   Gtr.2(Distortion)
E|--------------------------|
B|--------------------------|
G|7-------------------------|
D|8-------------------------|
A|-----------------------0--|
E|--------------------------|
 |   Gtr.3(Clean)
E|--------------------------|
B|--------------------------|
G|7-------------------------|
D|8-------------------------|
A|-----------------------0--|
E|--------------------------|
 
 
 
 
   (Bm addC#)           (Aadd9)             (Bm7)    (Gsus2)   (Em addF#)
    Gtr.2
    >     >     >        >     >             >        >          >
E|---------------------|----------2--------|-------------------|-------------------|
B|---------------------|-------------2-----|-------------------|-------------------|
G|6-------6-----4-4----|-------4--------4--|-------2--------2--|----------0--------|
D|8----4-----4------2--|----2--------------|----0--------0-----|-------4-----4-----|
A|--2------------------|-0-----------------|-2-----------------|----2-----------2--|
E|---------------------|-------------------|----------3--------|-0-----------------|
 |  Gtr.3
 |  >     >     >        >     >             >        >          >
E|---------------------|----------2--------|-------------------|-------------------|
B|---------------------|-------------2-----|-------------------|-------------------|
G|6-------6-----4-4----|-------4--------4--|-------2--------2--|----------0--------|
D|8----4-----4------2--|----2--------------|----0--------0-----|-------4-----4-----|
A|--2------------------|-0-----------------|-2-----------------|----2-----------2--|
E|---------------------|-------------------|----------3--------|-0-----------------|
 
 
 
 
  (F#addG#)       Fmaj7(+11)/A Asus2                        Asus2 A5
   Gtr.2
   >
E|-------------------|--0--0--------------|(0)---------------|-------------------|
B|-------------------|--0--0--------------|(0)---------------|-------------------|
G|----------2--------|4-5--4--------------|(4)---------------|-4-/9--------------|
D|-------6-----------|4-3--2--------------|(2)---------------|-2-/7--------------|
A|----4--------4--0--|--0--0--------------|(0)---------------|-0-----------------|
E|-2-----------------|--------------------|------------------|-------------------|
 | Gtr.3
 | >
E|-------------------|--0--0--------------|(0)---------------|-------------------|
B|-------------------|--0--0--------------|(0)---------------|-------------------|
G|----------2--------|4-5--4--------------|(4)---------------|-4-/9--------------|
D|-------6-----------|4-3--2--------------|(2)---------------|-2-/7--------------|
A|----4--------4--0--|--0--0--------------|(0)---------------|-0-----------------|
E|-2-----------------|--------------------|------------------|-------------------|
 
 
 
 
                      A5 G5
   Gtr.2
E|------------------|-------------------|------------------|--------------------|
B|------------------|-------------------|------------------|--------------------|
G|(9)---------------|-9-\7--------------|(7)---------------|---------------4----|
D|(7)---------------|-9-\5--------------|(5)---------------|--------------------|
A|(0)---------------|-7-\5--------------|(5)---------------|----3---------------|
E|------------------|-------------------|------------------|-0--1---------------|
 | Gtr.3
E|------------------|-------------------|------------------|--------------------|
B|------------------|-------------------|------------------|--------------------|
G|(9)---------------|-9-\7--------------|(7)---------------|---------------4----|
D|(7)---------------|-9-\5--------------|(5)---------------|--------------------|
A|(0)---------------|-7-\5--------------|(5)---------------|----3---------------|
E|------------------|-------------------|------------------|-0--1---------------|
 
 
 
 
                             F#sus4                                 F#7addB
   Gtr.2
E|------1--------------|--------------------|---------------------|---------12------------|
B|-1---------1---------|-----0--------------|--(0)----------------|---------------12------|
G|----------------4----|9----x--------------|4-(x)----------------|-3--3---------------15-|
D|---------------------|8----4--------------|4-(4)----------------|-4--4------------------|
A|---------------------|-----4--------------|--(4)----------------|-4--4------------------|
E|---------------------|--0--2--------------|--(2)-------------0--|-2--2------------------|
 | Gtr.3
E|------1--------------|--------------------|---------------------|---------12------------|
B|-1---------1---------|-----0--------------|--(0)----------------|---------------12------|
G|----------------4----|9----x--------------|4-(x)----------------|-3--3---------------15-|
D|---------------------|8----4--------------|4-(4)----------------|-4--4------------------|
A|---------------------|-----4--------------|--(4)----------------|-4--4------------------|
E|---------------------|--0--2--------------|--(2)-------------0--|-2--2------------------|
 
 
 
 
    Gtr.2
    ~~~~~~~~~~~~~~~~~
E|-------------------|---0-0-0-0-0----------|
B|-------------------|---0-0-0-0-0----------|
G|(15)---------------|---3-3-3-3-3----------|
D|-------------------|---4-4-4-4-4----------|
A|-------------------|---4-4-4-4-4----------|
E|-------------------|---2-2-2-2-2----------|
 |  Gtr.3
 |  ~~~~~~~~~~~~~~~~~
E|-------------------|---0-0-0-0-0----------|
B|-------------------|---0-0-0-0-0----------|
G|(15)---------------|---3-3-3-3-3----------|
D|-------------------|---4-4-4-4-4----------|
A|-------------------|---4-4-4-4-4----------|
E|-------------------|---2-2-2-2-2----------|
 
 
 
 
                       F#7addB
   Gtr.2
E|----------------|-------------------|-------------------|
B|----------------|----0--------------|(0)----------------|
G|----------------|----3--------------|(3)----------------|
D|-----------x--\-|----4--------------|(4)----------------|
A|-----------x--\-|----4--------------|(4)----------------|
E|----------------|-0--2--------------|(2)-------------0--|
 | Gtr.3
E|----------------|-------------------|-------------------|
B|----------------|----0--------------|(0)----------------|
G|----------------|----3--------------|(3)----------------|
D|-----------x--\-|----4--------------|(4)----------------|
A|-----------x--\-|----4--------------|(4)----------------|
E|----------------|-0--2--------------|(2)-------------0--|
 
 
 
 
   F#sus2                                         E2
   Gtr.2
E|-9----------------|-9---9--x--9---9-x-x--9---9--7--|
B|-9----------------|-9---9--x--9---9-x-x--9---9--7--|
G|11----------------|11--11--x-11--11-x-x-11--11--9--|
D|11----------------|11--11--x-11--11-x-x-11--11--9--|
A|-9----------------|-9---9--x--9---9-x-x--9---9--7--|
E|------------------|--------------------------------|
 | Gtr.3
E|-9----------------|-9---9--x--9---9-x-x--9---9--7--|
B|-9----------------|-9---9--x--9---9-x-x--9---9--7--|
G|11----------------|11--11--x-11--11-x-x-11--11--9--|
D|11----------------|11--11--x-11--11-x-x-11--11--9--|
A|-9----------------|-9---9--x--9---9-x-x--9---9--7--|
E|------------------|--------------------------------|
 
 
 
 
   F#2        F#5                          G5
   Gtr.2
E|-9---------------|---------------------|-------------------|----------------|
B|-9---------------|---------------------|-------------------|----------------|
G|11---------------|---------------------|-------------------|----------------|
D|11----------4----|---4-4-4----------4--|-5--------5-5-5----|-----------5----|
A|-9----------4----|---4-4-4----------4--|-5--------5-5-5----|-----------5----|
E|------------2----|---2-2-2----------2--|-3--------3-3-3----|-----------3----|
 
 
 
 
   A5                  B5              F
   Gtr.2                                                     ~~~~~~~~~~~~~~~~~
E|-------------------|---------------|----------0----------|------------------|
B|-------------------|---------------|---------------0-----|------------------|
G|-------------------|---------------|-------------------3-|(3)---------------|
D|-7------7----------|---9-----------|-4-------------------|------------------|
A|-7------7----------|---9--------2--|-4-------------------|------------------|
E|-5------5----------|---7--------0--|-2-------------------|------------------|
 
 
 
 
 
     N.C.
     Gtr.1 (Doubled by keyboard)
E|--12--------------14-13-12-11-10--------------------|
B|------12--11--------------------14-13-12-11---------|
G|8-------------11---------------------------14-13-12-|
D|8---------------------------------------------------|
A|----------------------------------------------------|
E|----------------------------------------------------|
 
 
 
 
 
   Gtr.1
                ___3__ ___3___ __3__                         __3___
E|------------------------------------|-----------------------------|
B|------------------------------------|-----------------------------|
G|11--9--8------9-11-9-8--------------|-----------------------------|
D|----------11-----------11-10-9-8----|-----------/13--11----9^11^9-|
A|---------------------------------11-|-9---7---6-------------------|
E|------------------------------------|-----------------------------|
 
 
 
 
 
   Gtr.1
        ~~~~~~~~~~~~~
E|----------------------|-----21-------18^19-------14--|
B|----------------------|19--------19---------17-------|
G|----/11------------21-|------------------------------|
D|-8--------------------|------------------------------|
A|----------------------|------------------------------|
E|----------------------|------------------------------|
 
 
 
 
 
   Gtr.1
E|------------------------|---------------9-14------9-12-----|
B|16----------------------|-------------------------------10-|
G|-------16-16\8----------|-----11---9-11------9-11----------|
D|---------------------9--|-8--------------------------------|
A|------------------------|----------------------------------|
E|------------------------|----------------------------------|
 
 
 
 
 
   Gtr.1
                       ~~~~~~~~~~
E|---------9---------------------|----------------------------------------|
B|11-12-13---10-11---------------|12-9-10-11-10-9-------------------------|
G|-----------------11------------|----------------11-10-9-8----8-9-10-9-8-|
D|--------------------11---------|--------------------------11------------|
A|-------------------------------|----------------------------------------|
E|-------------------------------|----------------------------------------|
 
 
 
 
 
   Gtr.1
                                P.M._      P.M._ _    P.M._ _    P.M._ _    P.M._ _
                                __3__   _____3____ _____3____ _____3____ _____3____
E|------------------------------------|---------------------------------------------|
B|------------------------------------|-7----------5--------------------------------|
G|----------------6-------------------|-----------------------6----------4----------|
D|11-10-9-8-6-8-9---9-8-6-5-4---6-7-8-|----6-4-5-6----------------------------------|
A|----------------------------6-------|---------------8-6-7-8----6-4-5-6----4-2-3-4-|
E|------------------------------------|---------------------------------------------|
 
 
 
 
 
   Gtr.1
            ~~~~~~ +1         +3/2~~         __3__ 
E|--------------------|--7-8-9-9b---9-8-7----7^8^7------|
B|-----------------9b-|-------------------10-------10-7-|
G|-3------------------|---------------------------------|
D|--------------------|---------------------------------|
A|---4----------------|---------------------------------|
E|--------------------|---------------------------------|
 
 
 
 
 
   Gtr.1
                                                            +3/2
E|8^7-5-----5-6-----------------------|----------------------------|
B|------7-5-----7---------------------|----------------------------|
G|----------------6-5^4-2-----2-3-----|----------------------------|
D|------------------------4-2-----4-2-|-4-2-------------4---(4b)---|
A|------------------------------------|-----4-3-2-0----------------|
E|------------------------------------|-------------2-0------------|
 
 
 
 
                         E5 F#11
   Gtr.1
          ~~~~~~
E|---------------------|---(0)-------------|
B|---------------------|----0--------------|
G|---------------------|----3--------------|
D|-r----4^2------------|-2--4--------------|
A|---------------------|-2--4--------------|
E|---------------------|-0--2--------------|
 
 
 
 
                  E5   F#11
   Gtr.1   
E|(0)----------------|-0----------------|(0)---------------|
B|(0)----------------|(0)---------------|(0)---------------|
G|(3)----------------|-3----------------|(3)---------------|
D|(4)-------------2--|-4----------------|(4)---------------|
A|(4)-------------2--|-4----------------|(4)---------------|
E|(2)-------------0--|-2----------------|(2)---------------|
 
 
 
 
    N.C.(E5)  (Csus4)     (E5)       (Csus4)  
    Gtr.1
    P.M._   P.M.           P.M._   P.M.
E|-----------------------|----------------------|
B|-----------------------|----------------------|
G|6----------------------|----------------------|
D|8-------9--------------|-------9--------------|
A|------7---------8--10--|-----7---------8--10--|
E|--0-0------0-8---------|-0-0------0-8---------|
 
 
 
 
  (E5)       (Csus4)     (E5)       (Csus4)  
   Gtr.1
   P.M._   P.M.           P.M._   P.M.
E|----------------------|----------------------|
B|----------------------|----------------------|
G|----------------------|----------------------|
D|-------9--------------|-------9--------------|
A|-----7---------8--10--|-----7---------8--10--|
E|-0-0------0-8---------|-0-0------0-8---------|
 
 
 
 
 
   Gtr.1
E|--------|--------|--------|--------|
B|--------|--------|--------|--------|
G|--------|--------|--------|--------|
D|--------|--------|--------|--------|
A|--------|--------|--------|--------|
E|--------|--------|--------|--------|
 
 
 
 
   N.C.
   Gtr.1
   ~~~~~~~ ~~~~~~~  ~~~~~~~ ~~~~~~~  ~~~~~~~ ~~~~~~~  ~~~~~~~ ~~~~~~~
E|--------12------|--------10------|----------------|----------------|
B|----------------|10--------------|12--------------|10--------------|
G|-9--------------|----------------|--------12------|----------------|
D|----------------|----------------|----------------|--------12------|
A|----------------|----------------|----------------|----------------|
E|----------------|----------------|----------------|----------------|
 
 
 
 
   Gtr.1
      ~~~~~~~ ~~~~~~~    ~~~~~~~ ~~~~~~~  ~~~~~~ ~~~~~~~  ~~~~~~ ~~~~~~~
E|-------------------|--18--------------|---------------|---------------|
B|-----------15------|-x----------------|---------------|---------------|
G|-------------------|x---------16------|13------9------|11-------------|
D|12^14--------------|------------------|---------------|--------8------|
A|-------------------|------------------|---------------|---------------|
E|-------------------|------------------|---------------|---------------|
 
 
 
 
   Gtr.1
E|-----------------------17—-15/|16----------------------------|
B|---17-------17----------------|---17-------17------17--------|
G|----------------16-14---------|------------------------16-14-|
D|14----14-14-------------------|------14-14------14-----------|
A|------------------------------|------------------------------|
E|------------------------------|------------------------------|
 
 
 
 
 
   Gtr.1
E|----17--19--16-----17---16/|22---------------------|
B|---------------17----------|------------17/22------|
G|(14)-----------------------|-----------------------|
D|---------------------------|----13--14--------7-8--|
A|---------------------------|-----------------------|
E|---------------------------|-----------------------|
 
 
 
 
 
   Gtr.1
                                         ~~~~~~~~~~~~~~~~~~~~~~~
E|--------------9---|10/16------------------|-------------------|
B|------------------|-------------------17--|(17)---------------|
G|------2-----------|---------------16------|-------------------|
D|-9--2-----6-------|------14--18-----------|-------------------|
A|------------------|-----------------------|-------------------|
E|------------------|-----------------------|-------------------|
 
 
 
 
 
   Gtr.1
   P.M._   P.M.           P.M._   P.M.
E|----------------------|----------------------|
B|----------------------|----------------------|
G|----------------------|----------------------|
D|-------9--------------|-------9--------------|
A|-----7---------8--10--|-----7---------8--10--|
E|-0-0------0-8---------|-0-0------0-8---------|
 
 
 
 
 
    Gtr.1
    P.M._     P.M._  P.M.           P.M._     P.M._  P.M.
E|--------------------------------|-------------------------------|
B|--------------------------------|-------------------------------|
G|9-------------------------------|-------------------------------|
D|8-------------------------------|-------------------------------|
A|--------7---------7-------7—-8--|-------7---------7-------7—-8--|
E|--0-0-0-----0-0-0----0-7--------|-0-0-0-----0-0-0----0-7--------|
 
 
 
 
 
   Gtr.1
   P.M._     P.M._  P.M.           P.M._     P.M._  P.M.
E|-------------------------------|-------------------------------|
B|-------------------------------|-------------------------------|
G|-------------------------------|-------------------------------|
D|-------------------------------|-------------------------------|
A|-------7---------7-------7—-8--|-------7---------7-------7—-8--|
E|-0-0-0-----0-0-0----0-7--------|-0-0-0-----0-0-0----0-7--------|
 
 
 
 
 
    Gtr.1
E|---------------------------|-------------------------------------|
B|---------------------------|-------------------------------------|
G|7-------6-3-------------7--|9-------10-7---------------11--13----|
D|8-----5-----4---------6----|8-----9------8----------10-----12----|
A|----4---------5-----5------|----8----------9------9--------11----|
E|--3-------------6-4--------|--7--------------10-8----------10----|
 
 
 
 
 
    Gtr.1
E|---------------------------------------|----------------------11-------------------|
B|---------------------------------------|---11-10-----------------------------------|
G|7----------14-11-------------------15--|19-------13-12-11-10---------------13-12---|
D|8-------13-------12-------------14-----|16-------------------------12-12-----------|
A|-----12-------------13-------13--------|-------------------------------------------|
E|--11-------------------14-12-----------|-------------------------------------------|
 
 
 
 
     N.C.
     Gtr.1
     P.M._ _ _ _ _ _ _ _ _ _ _ _ _ _ _ _ _ _ _ _ _ _ _ _
E|---------------------------|--------------------------|
B|---------------------------|--------------------------|
G|13-------------------------|7-------------------------|
D|16-------------------------|8-------------------------|
A|---------------5-4-3-2-1-0-|--------------5-4-3-2-1-0-|
E|---5-4-3-2-1-0-------------|--5-4-3-2-1-0-------------|
 
 
 
 
 
     Gtr.1
     P.M._ _ _ _ _ _ _ _ _ _ _ _ _ _ _ _ _ _ _ _ _ _ _ _
E|---------------------------|--------------------------|
B|---------------------------|--------------------------|
G|13-------------------------|7-------------------------|
D|16-------------------------|8-------------------------|
A|---------------5-4-3-2-1-0-|--------------5-4-3-2-1-0-|
E|---5-4-3-2-1-0-------------|--5-4-3-2-1-0-------------|
 
 
 
 
 
     Gtr.1
E|---------------------------|-------------------------|
B|---------------------------|-------------------------|
G|12-------------------------|-------------------------|
D|-8-------4-----5---4---4---|-------4-----5---4---4---|
A|-----------2-3---3---2---2-|---------2-3---3---2---2-|
E|---3-2-3-------------------|-3-2-3-------------------|
 
 
 
 
 
   Gtr.1
E|-------------------------|--------------------|
B|-------------------------|--------------------|
G|-------------------------|9-------------------|
D|-------4-----5---4---4---|8-------4-----5-----|
A|---------2-3---3---2---2-|----------2-3---3-2-|
E|-3-2-3-------------------|--3-2-3-------------|
 
 
 
 
 
      Gtr.1
      >   >     >       >       >   >     >   >   >
E|----------------------------|-------------------------|
B|----------------------------|-------------------------|
G|5+7-------------------------|---
Composição de John Petrucci
21.089 exibições
    • ½ Tom
    • A
    • Bb
    • B
    • C
    • Db
    • D
    • Eb
    • E
    • F
    • F#
    • G
    • Ab
  • Adicionar à lista

    0 comentários

    Ver todos os comentários

    Conseguiu tocar?

    0 Tocaram 0 Ainda não

    Grave um vídeo tocando Metropolis - Part 1 e nos envie!

    00:00 / 00:00
    outros vídeos desta música
    repetir qualidade Automático
    Outros vídeos desta música
    00:00 / 00:00
    Automático

    Cifra Club Pro

    Aproveite o Cifra Club com benefícios exclusivos e sem anúncios
    Cifra Club Pro
    Aproveite o Cifra Club com benefícios exclusivos e sem anúncios
    OK