Cifra Club

Aprenda

Octavarium

Dream Theater

Cifra: Principal (violão e guitarra)
tom: Ab
E|-------|---------|----------|---------|---------|---------|---------|
B|-------|---------|----------|---------|---------|---------|---------|
G|-------|---------|----------|--3------|---------|--6------|--7------|
D|--3----|--3------|--3-------|--3------|--3------|--6------|--7------|
A|--3----|--3------|--3-------|--1------|--3------|--4------|--5------|
E|--1----|--1------|--1-------|---------|--1------|---------|---------|
                                Fm                        Cm                     Bbm
----------|---------|--1----1--x-1-1--x-1-1--|--3----3--x-3-3--x-3-3--|--1----1--x-1-1--x-1-1----
----------|---------|--1----1--x-1-1--x-1-1--|--4----4--x-4-4--x-4-4--|--2----2--x-2-2--x-2-2----
----------|---------|--1----1--x-1-1--x-1-1--|--5----5--x-5-5--x-5-5--|--3----3--x-3-3--x-3-3----
--3-------|---------|--3----3--x-3-3--x-3-3--|--5----5--x-5-5--x-5-5--|--3----3--x-3-3--x-3-3----
--1-------|---------|--3----3--x-3-3--x-3-3--|--5----5--x-5-5--x-5-5--|--1----1--x-1-1--x-1-1----
--1-------|---------|--1----1--x-1-1--x-1-1--|------------------------|--------------------------
          Fm                               Eb                            Ab
--1----1--x-1-1--x-1-1--1-1-|-----------------------------|--4--x-x-4--x-4----x-4-4--4-4-|
--1----1--x-1-1--x-1-1--1-1-|--4----4--x-4-4--x-4-4-4-4-4-|--4--x-x-4--x-4----x-4-4--4-4-|
--1----1--x-1-1--x-1-1--1-1-|--3----3--x-3-3--x-3-3-3-3-3-|--5--x-x-5--x-5----x-5-5--5-5-|
--3----3--x-3-3--x-3-3--3-3-|--5----5--x-5-5--x-5-5-5-5-5-|--6--x-x-6--x-6-6--x-6-6--6-6-|
--3----3--x-3-3--x-3-3--3-3-|--6----6--x-6-6--x-6-6-6-6-1-|--6--x-x-6--x-6-6--x-6-6--6-6-|
--1----1--x-1-1--x-1-1--1-1-|----------x------x-----------|--4-----------4-4----4-4--4-4-|
  Edim                       Fm              Ab      Ddim                       Fdim
-------------------|--8---8---8--8--4----4--4-4-|----------x--------|------------------------|
--8----8--x-8-8--8-|--9---9---9--9--4----4--4-4-|--6----6--x-6-6--6-|--9----9--x-9-9--9--x-9-|
--6----6--x-6-6--6-|--10--10--10-10-5----5--5-5-|--4----4--x-4-4--4-|--7----7--x-7-7--7--x-7-|
--8----8--x-8-8--8-|--10--10--10-10-6----6--6-6-|--6----6--x-6-6--6-|--9----9--x-9-9--9--x-9-|
--7----7--x-7-7--7-|--8---8---8--8--6----6--6-6-|--5----5--x-5-5--5-|--8----8--x-8-8--8--x-8-|
----------x--------|----------------4----4--4-4-|----------x--------|--------------------x---|
  C
--8-----8---x-8--8-----8-----8--|--8-----------------|
--8-----8---x-8--8-----8---x-8--|--8-----------------|
--9-----9---x-9--9-----9---x-9--|--9-----------------|
--10----10--x-10-10----10--x-10-|--10----------------|
--10----10--x-10-10----10--x-10-|--10----------------|
--8-----8---x-8--8-----8-----8--|--8-----------------|

-------------------------------|-------------------------------|
---------9------8--------------|-------------------------------|
-----------------------10------|---------9--------------9------|
-----10-----10-----10------10--|----------------13-------------|
--8----------------------------|-----11-----11------11-----11--|
-------------------------------|--9----------------------------|

-------------------------------|--------------------------|
---------9------8--------------|--------------------------|
-----------------------10------|---------9----------------|
-----10-----10-----10------10--|----------------13--------|
--8----------------------------|-----11-----11------------|
-------------------------------|--9-----------------------|

-------------------------------|------------------------------|
---------9------8--------------|------------------------------|
-----------------------10------|---------9------8------9------|
-----10-----10-----10------10--|------------------------------|
--8----------------------------|-----11-----11-----11-----11--|
-------------------------------|--9---------------------------|

-------------------------------|--------7-----------------|
---------9------8--------------|--9-----------8-----6-----|
-----------------------10------|-----8-----8-----8-----8--|
-----10-----10-----10------10--|--------------------------|
--8----------------------------|--------------------------|
-------------------------------|--------------------------|

----------------------------|---------------------------|
--8-------------------------|------------------------8--|
----8-----------7-----8-----|--------------8-----10-----|
------8------8-----8-----8--|--------9------------------|
---------10-----------------|-----8-----8-----8---------|
----------------------------|--7------------------------|

--11---------8--10p8---8-11-10-8----|----------10----14/x------------------|
------11--8----------8-----------11-|--10-----------------10---8-7h8p7-----|
------------------------------------|------11--------11/x----7---------9-7-|
------------------------------------|--------------------------------------|
------------------------------------|--------------------------------------|
------------------------------------|--------------------------------------|

-----------------10------12--12--|--12/0------------0-----------|
---------10----------10----------|------------------------------|
--10---------10------------------|-------6-------6------6-------|
------9--------------------------|---------7---7----------6-----|
---------------------------------|-----------7--------7---------|
---------------------------------|------------------------------|

----------0-------0-------0-------|----------5-------9----12-9-----|
----7---7---7---7-----7-----7---7-|--------5---5-------10----------|
--9-----------7-----7---7-----6---|--6---6-------6-----------------|
------7---------------------------|----7-----------7---------------|
----------------------------------|--------------------------------|
----------------------------------|--------------------------------|

--0---0--------------------|--0-2-3---------2---0---2---0---|
----3----1-----3-----1-----|--------0---------0---0---0---0-|
------------0-----0-----0--|--------------------------------|
---------------------------|----------4---------------------|
---------------------------|-------------7------------------|
---------------------------|--------------------------------|

--1--------1--------|--------1-------1---------4-----|
--------------------|--2--4----2---2-------2-----2---|
--------------------|------------1-----1-----1-----1-|
--------------------|--------------------3-----------|
--------------------|--------------------------------|
--------------------|--------------------------------|

-----------------------10--|-------------------------|------------------|
--------6/-10-10-10-10-----|-------------7-----------|------------------|
-----7---------------------|--6--------6---6---------|------------------|
--8------------------------|----7--7-7---------------|------------------|
---------------------------|-------------------------|------------------|
---------------------------|-------------------------|------------------|

-------------------------------|-------------------------------|
---------9------8--------------|-------------------------------|
-----------------------10------|---------9--------------9------|
-----10-----10-----10------10--|----------------13-------------|
--8----------------------------|-----11-----11------11-----11--|
-------------------------------|--9----------------------------|

-------------------------------|--------7-----------------|
---------9------8--------------|--9-----------8-----6-----|
-----------------------10------|-----8-----8-----8-----8--|
-----10-----10-----10------10--|--------------------------|
--8----------------------------|--------------------------|
-------------------------------|--------------------------|
(3 x)
----------------------------|---------------------------|
--8-------------------------|------------------------8--|
----8-----------7-----8-----|--------------8-----10-----|
------8------8-----8-----8--|--------9------------------|
---------10-----------------|-----8-----8-----8---------|
----------------------------|--7------------------------|

--11---------8--10p8---8-11-10-8----|----------10----14/x------------------|
------11--8----------8-----------11-|--10-----------------10---8-7h8p7-----|
------------------------------------|------11--------11/x----7---------9-7-|
------------------------------------|--------------------------------------|
------------------------------------|--------------------------------------|
------------------------------------|--------------------------------------|

-----------------10------12--12--|-------------------------------|
---------10----------10----------|--5-------2-----------2--------|
--10---------10------------------|------2-----2---2-1-----1------|
------9--------------------------|----2---2-----2-----2-----2----|
---------------------------------|--4----------------------------|
---------------------------------|-------------------------------|

----------0-------0-------0-------|----------5-------9----12-9-----|
----7---7---7---7-----7-----7---7-|--------5---5-------10----------|
--9-----------7-----7---7-----6---|--6---6-------6-----------------|
------7---------------------------|----7-----------7---------------|
----------------------------------|--------------------------------|
----------------------------------|--------------------------------|

---------------------------|--0-2-3---------2---0---2---0---|
--5-7-8--------7-----5-----|--------0---------0---0---0---0-|
---------5--------------4--|--------------------------------|
------------5-----5--------|----------4---------------------|
---------------------------|-------------7------------------|
---------------------------|--------------------------------|

--1--------1--------|--------1-------1---------4-----|-------------------|
--------------------|--2--4----2---2-------2-----2---|-------------------|
--------------------|------------1-----1-----1-----1-|-------------------|
--------------------|--------------------3-----------|--3----------------|
--------------------|--------------------------------|--3----------------|
--------------------|--------------------------------|--1----------------|

---------------------||------------------------|------------------------|
---------------------||------------------------|------------------------|
---------------------||-------4-----------4----|-------4-----------4----|
------------6--------||------------------------|------------------------|
---------6--6--------||--2--------2-2--2-------|--2--------2-2--2-------|
--4------4--4--------||------------------------|------------------------|

------------------------||------------------------|------------------------|-------------------|
------------------------||------------------------|------------------------|-------------------|
-------4-----------4----||-------3-----------3----|------------------------|-------------------|
------------------------||------------------------|-------7-----------7----|-------------------|
--2--------2-2--2-------||--1--------1-1--1-------|--0--------0-0--0-------|-------------------|
------------------------||------------------------|------------------------|--5~---------------|

||------------0--------|----------4----5----|----------------------|--0-------------------||
||------------0--------|--------------------|------------3---------|------------3---------||
||------------2--------|--------------------|-------2---------2----|-------2---------2----||
||-------2----2--------|--------------------|--3-------------------|----------------------||
||--0------------------|--------------------|----------------------|----------------------||
||---------------------|--------------------|----------------------|----------------------||

----------------------|--2-------------------|----------------------|--0-------------------|
------------2---------|------------2---------|------------1---------|-------0--------------|
-------2---------2----|-------2---------2----|-------2---------2----|------------2---------|
--4-------------------|----------------------|--3-------------------|-----------------3----|
----------------------|----------------------|----------------------|----------------------|
----------------------|----------------------|----------------------|----------------------|
(2 x)
        (2 x)                        (2 x)                   (3 x)
--------------------------|--------------1-----------|--0----0-----0----------|
--------------3-----------|--------1--------1-----1--|--0----0--0--0----0--0--|
--------0--------0-----0--|-----2-----2--------2-----|--2----2--2--2----2--2--|
-----4-----4--------4-----|--3-----------------------|--2----2--2--2----2--2--|
--5-----------------------|--------------------------|--0----0-----0----------|
--------------------------|--------------------------|------------------------|

--0--0-----0--------|--0--0-----0--------|--0--0-----0--------|--0--0-----0--------||--------|
--0--0--0--0--0--0--|--0--0--0--0--0--0--|--0--0--0--0--0--0--|--3--3--3--3--3--3--||--7-----|
--2--2--2--2--2--2--|--2--2--2--2--2--2--|--2--2--2--2--2--2--|--2--2--2--2--2--2--||-----7--|
--2--2--2--2--2--2--|--3--3--3--3--3--2--|--4--4--4--4--4--4--|--0--0--0--0--0--0--||-7------|
--0--0-----0--------|--0--0-----0--------|--0--0-----0--------|--0--0-----0--------||--------|
--------------------|--------------------|--------------------|--------------------||--------|

|----------------------|--2-------------------|----------------------|--0-------------------|
|------------2---------|------------2---------|------------1---------|-------0--------------|
|-------2---------2----|-------2---------2----|-------2---------2----|------------2---------|
|--4-------------------|----------------------|--3-------------------|-----------------3----|
|----------------------|----------------------|----------------------|----------------------|
-----------------------|----------------------|----------------------|----------------------|

-------------------|------------------|---------------3----|------1------------|
--3----------------|------------------|--1-----------------|------1------------|
--0----------------|------------------|--2-----------------|-------------------|
--4----------------|------------------|--3------------3----|-------------------|
--5----------------|------------------|--3-----------------|-------------------|
-------------------|------------------|--1-----------------|-------------------|

---------------0----|-------------------|---------------------|
--------------------|------0------------|---------------------|
--2-----------------|-------------------|--2---------------2--|
--2-----------------|-------------------|--2------------2-----|
--0-----------------|-------------------|--0------------------|
--------------------|-------------------|---------------------|

--0---------------------|-------------------|--------------------------|
-----0------------------|-------------------|--------------------------|
------------------------|-------------------|--------------2-----------|
------------------------|--3----------------|--------3--------3-----3--|
------------------------|--3----------------|-----3-----3--------3-----|
------------5--4--3--2--|--1----------------|--1-----------------------|

--------------------------|--------------------------|--------------------|
--------------------------|--------------------------|-----------2--------|
--------------4-----------|--------------4-----------|--2-----------------|
--------5-----------5-----|--------5-----------5-----|--2-----------------|
--5--5-----5-----5-----5--|--5--5-----5-----5-----5--|--0-----------------|
--3-----------------------|--3-----------------------|--------------------|

----------------------|--------------------|----------------------|
--0-------------------|-----------1--------|--0-------------------|
-------2--------------|--2-----------------|-------2--------------|
------------0----2----|--3-----------------|------------2----3----|
----------------------|--0-----------------|----------------------|
----------------------|--------------------|----------------------|

------------------|------------------|----------------|----------0----1----||-------------------|
---------2--------|--0---------------|--0--------0----|--1---3-------------||--3----------------|
--2---------------|-----2------------|--2---2---------|--------------------||--2----------------|
--4---------------|--------0----2----|--3-------------|--------------------||--0----------------|
--0---------------|------------------|--3-------------|--------------------||--0----------------|
------------------|------------------|--1-------------|--------------------||-------------------|

-------------------|------------------|-------------------|--------------------|
-------------------|------------------|-------------------|--------------------|
-------------------|------------------|-------------------|--------------------|
--2----------------|------------------|--2----------------|--9-----------------|
-------------------|------------------|-------------------|--------------------|
--0----------------|------------------|--0----------------|--7------------7/---|

-------------------|-------------------|-------------------|
-------------------|-------------------|-------------------|
-------------------|-------------------|-------------------|
--2----------------|--9----------------|--2----------------|
-------------------|-------------------|-------------------|
--0----------------|--7----------------|--0----------------|

------------------------|------------------------------|
------------------------|------------------------------|
------------------------|------------------------------|
------------------------|------------------------------|
--5---4---2-------------|----------7-7-7-7-----7-7-7-7-|
--------------5---4--2--|--0---0-----------0-0---------|

------------------------------|------------------------------|
------------------------------|------------------------------|
------------------------------|------------------------------|
------------------------------|------------------------------|
----------7-7-7-7-----7-7-7-7-|----------7-7-7-7-----7-7-7-7-|
--0---0-----------0-0---------|--0---0-----------0-0---------|

------------------------|------------------------------|
----------0-------0--0--|------------------------------|
------------------------|------------------------------|
------------------------|------------------------------|
--2---2-------2---------|----------7-7-7-7-----7-7-7-7-|
------------------------|--0---0-----------0-0---------|

------------------------|------------------------------|
------------------------|------------------------------|
------------------------|------------------------------|
------------------------|------------------------------|
--5---4---2-------------|----------7-7-7-7-----7-7-7-7-|
--------------5---4--2--|--0---0-----------0-0---------|

------------------------|------------------------|
------------------------|------------------------|
------------------------|------------------------|
------------------------|------------------------|
--5---4---2----------2--|--4---4---4---4---4--4--|
--------------5---4-----|------------------------|

----------------------------------|------------------------|
----------------------------------|------------------------|
----------------------------------|------------------------|
----------------------------------|------------------------|
--3-3-3-3-3-3-3-3-3-3-3-3-3-3-3-3-|--4---4---4---4---4--4--|
----------------------------------|------------------------|

----------------------------------|------------------------------|
----------------------------------|------------------------------|
----------------------------------|------------------------------|
----------------------------------|------------------------------|
----------------------------------|----------7-7-7-7-----7-7-7-7-|
--5-5-5-5-5-5-5-5-5-5-5-5-5-5-5-5-|--0---0-----------0-0---------|
(3 x)
------------------------|------------------------------|
------------------------|------------------------------|
------------------------|------------------------------|
------------------------|------------------------------|
--5---4---2-------------|----------7-7-7-7-----7-7-7-7-|
--------------5---4--2--|--0---0-----------0-0---------|

------------------------|------------------------|
------------------------|------------------------|
------------------------|------------------------|
------------------------|------------------------|
--5---4---2----------2--|--4---4---4---4---4--4--|
--------------5---4-----|------------------------|

--------------|---------------|----------------|---------------|----------------|---------------|
--------------|---------------|----------------|---------------|----------------|---------------|
--------------|---------------|----------------|---------------|----------------|---------------|
--------------|---------------|----------------|---------------|----------------|---------------|
--3-3-3-3-3-3-|--4-4-4-4-4-4--|----------------|--4-4-4-4-4-4--|--3-3-3-3-3-3-3-|--4-4-4-4-4-4--|
--------------|---------------|--5-5-5-5-5-5-5-|---------------|----------------|---------------|

--------------|----------------|----------------|
--------------|----------------|----------------|
--------------|----------------|----------------|
--------------|----------------|----------------|
--------------|----------------|----------------|
--5-5-5-5-5-5-|--4---4---3--3--|--2---2---1--1--|
(2 x)
----------------------|------------------|----------------|----------------|
----------------------|------------------|----------------|----------------|
----------------------|------------------|----------------|----------------|
----------------------|------------------|----------------|----------------|
----------7-7-7-7-7-7-|----------7-7-7-7-|--4---4---3--3--|--2---2---1--1--|
--0---0---------------|--0---0-----------|----------------|----------------|

--------------------|---------------------------|
--------------------|---------------------------|
--------------------|---------------------------|
--------------------|---------------------------|
--6--6--5--5--4--4--|--3---2---1----------------|
--------------------|--------------5---4--3--2--|
(7 x)
--------------------------|--------------------------|
--------------------------|--------------------------|
--------------------------|--------------------------|
--------------3-----3-----|--------------3-----3-----|
--------------------------|--------------------------|
--1-1-1-1-1-1----1-----1--|--1-1-1-1-1-1----1-----1--|

--------------------------|--------------------------|
--------------------------|--------------------------|
--------------------------|--------------------------|
--8-----8-----5-----------|--------------3-----3-----|
----8-----8-----6---6-----|--------------------------|
------6-----6-----6---6-3-|--1-1-1-1-1-1----1-----1--|
(2 x)
--------------------------|--------------------------|-------------------|
--------------------------|--------------------------|-------------------|
--------------------------|--------------------------|-------------------|
--------------3-----3-----|--------------3-----3-----|----------3---3--3-|
--------------------------|--------------------------|-------------------|
--1-1-1-1-1-1----1-----1--|--1-1-1-1-1-1----1-----1--|--1---1------------|

--------------------------|
--------------------------|
------------------3-----3-|
------3-----5---3-----5---|
----4-----6---4-----6-----|
--6-----8-----------------|
(4 x)
-----------------|-----------------|----------------|----------------|
-----------------|-----------------|----------------|----------------|
----------3------|-----------------|----------------|----------3-----|
-----------------|----------3------|----------3-----|-------------3--|
--1---1----------|-----------------|-------------3--|--1---1---------|
-----------------|--1---1----------|--1---1---------|----------------|
(3 x)
--------------------|--------------------|------------------|------------------|
--------------------|--------------------|------------------|------------------|
--------------------|--------------------|------------------|------------------|
--------------3-----|--------------3-----|------------------|------------3-----|
-----------------3--|-----------------3--|--4---3-----------|---------------3--|
--1-1-1-1-1-1-------|--1-1-1-1-1-1-------|----------6---3---|--1-1--1--1-------|

------------------|------------------|------------------|------------------|
------------------|------------------|------------------|------------------|
------------------|------------------|------------------|------------------|
------------3-----|------------3-----|--------------5---|------------3-----|
---------------3--|---------------3--|------3---4-------|---------------3--|
--1-1--1--1-------|--1-1--1--1-------|--6---------------|--1-1--1--1-------|

------------------|------------------|--------------------------|
------------------|------------------|--------------------------|
------------------|------------------|--------------------------|
------------3-----|------------3-----|--------------------------|
---------------3--|---------------3--|--4-4-4-3-3-3-------------|
--1-1--1--1-------|--1-1--1--1-------|--------------6-6-6-3-3-3-|

------------------|------------------|------------------|
------------------|------------------|------------------|
------------------|------------------|------------------|
------------3-----|------------3-----|------------3-----|
---------------3--|---------------3--|---------------3--|
--1-1--1--1-------|--1-1--1--1-------|--1-1--1--1-------|

--------------------------|
--------------------------|
--------------------------|
--------------------5-5-5-|
--------3-3-3-4-4-4-------|
--6-6-6-------------------|
(5 x)
----------------|----------------|-----------------|-----------------|
----------------|----------------|-----------------|-----------------|
----------------|----------3-----|----------3------|-----------------|
----------3-----|-------------3--|-----------------|----------3------|
-------------3--|--1---1---------|--1---1----------|-----------------|
--1---1---------|----------------|-----------------|--1---1----------|

-------------------|---------------|-------------------|---------------|--------------------------|
-------------------|---------------|-------------------|---------------|--------------------------|
-------------------|---------------|-------------------|---------------|--------------------------|
----------5---5----|-----3---------|----------6--------|-----9---------|--------------12--11------|
----------3---3----|---------------|-------------------|---------------|--------------------------|
--1---1------------|--1------1--3--|--4--4--4----4--6--|--7------7--9--|--10---10--10---------13/-|

----------------|--------------|--------------|------------------|----------|
----------------|--------------|--------------|------------------|----------|
----------------|--------------|--------------|------------------|----------|
------3---------|--------------|--------------|------------------|----------|
--x-------------|--------------|--2-2-2-2-2-2-|--5-------4-------|--6-------|
--1-------1--3--|--4-4-4-4-4-4-|--------------|------4-------3---|----------|

---------|----------|-----------|----------|---------|----------|-----------|
---------|----------|-----------|----------|---------|----------|-----------|
---------|----------|-----------|----------|---------|----------|-----------|
---------|--3-------|--2--------|----------|---------|--3-------|--2--------|
--5------|----------|-----------|--6-------|--5------|----------|-----------|
---------|----------|-----------|----------|---------|----------|-----------|
(3 x)
----------------------|--------------------|----------------------|--------------------
----------------------|--------------------|----------------------|--------------------
--------------------3-|--4---3----3-4-3----|--------------------6-|--7---6----6-7-6----
--3-5-6-5-3-5-3-5-6---|---------6----------|--6-8-9-8-6-8-6-8-9---|---------9----------
----------------------|--------------------|----------------------|--------------------
----------------------|--------------------|----------------------|--------------------

----------------------------|-------------|--------------|
----------------------------|-------------|--------------|
--------------------------9-|--10---9-----|--13---12--10-|
--9-11-12-11-9-11-9-11-12---|----------12-|--------------|
----------------------------|-------------|--------------|
----------------------------|-------------|--------------|

-----------------------------------|--10-7------------|--9-6---------|
--9---9-10----10-11----11-12----12-|-------8----------|------7-------|
----9------10-------11-------12----|---------7--------|--------6-----|
-----------------------------------|-----------9------|----------8---|
-----------------------------------|-------------10-5-|------------9-|
-----------------------------------|------------------|--------------|

--12-9--------------|--11-8----------------|--10-7-------------|--9-6---------|
-------10-----------|-------9--------------|-------8-----------|------7-------|
----------9---------|---------8------------|---------7---------|--------6-----|
------------11------|-----------10---------|-----------9-------|----------8---|
---------------12---|--------------11---11-|-------------10----|------------9-|
------------------9-|-----------------8----|----------------10-|--------------|

--12-9--------------|--11-8-----------------------8-11-8-----|------------------|------------------|
-------10-----------|-------9-------------------9--------9---|-1----------------|-1----------------|
----------9---------|---------8---------------8------------8-|-x----------------|-x----------------|
------------11------|-----------10---------10----------------|-3----------------|-3----------------|
---------------12---|--------------11---11-------------------|-3----------------|-3----------------|
------------------9-|-----------------8----------------------|-1----------------|-1----------------|
(5 x)
-----------------------------------------|------------------------------------|
-----------------------------------------|------------------------------------|
-----------------------------------------|------------------------------------|
----------------------------------8-9-11-|--9-8-9-11-12-11-9-8-9-11-9-8-------|
--8-10-11-10-8-7-8-10-8-7-8-10-11--------|------------------------------11-10-|
-----------------------------------------|------------------------------------|

-----------------------------------------|
-----------------------------------------|
-----------------------------------------|
----------------------------------8-9-11-|
--8-10-11-10-8-7-8-10-8-7-8-10-11--------|
-----------------------------------------|

----------------------------------------------------|
----------------------------------------------------|
----------------------------------------------------|
--9-8-9-11-12-11-9-8-9-11-9-8---------------8-------|
------------------------------11-10-8-10-11---11-10-|
----------------------------------------------------|
(2 x)
--------------------------------------------------|--------------------------------------------|
--------------------------------------------------|--------------------------------------------|
--------------------------------------------------|--------------------------------------------|
-----------------------------------------11-12-14-|--12-11-12-14-15-14-12-11-12-14-12-11-------|
--11-13-14-13-11-10-11-13-11-10-11-13-14----------|--------------------------------------14-13-|
--------------------------------------------------|--------------------------------------------|

------------------|
------------------|
------------------|
------------------|
11-10-11-13-11-10-|
------------------|
(2 x)
--------------------------------------------------|--------------------------------------------|
--------------------------------------------------|--------------------------------------------|
--------------------------------------------------|--------------------------------------------|
-----------------------------------------11-12-14-|--12-11-12-14-15-14-12-11-12-14-12-11-------|
--11-13-14-13-11-10-11-13-11-10-11-13-14----------|--------------------------------------14-13-|
--------------------------------------------------|--------------------------------------------|

-------------------|
-------------------|
-------------------|
----------11-------|
-11-13-14----14-13-|
-------------------|
(2 x)
--------------------------------------------------|--------------------------------------------|
--------------------------------------------------|--------------------------------------------|
--------------------------------------------------|--------------------------------------------|
-----------------------------------------14-15-17-|--15-14-15-17-18-17-15-14-15-17-15-14-------|
--14-16-17-16-14-13-14-16-14-13-14-16-17----------|--------------------------------------17-16-|
--------------------------------------------------|--------------------------------------------|

-------------------|
-------------------|
-------------------|
----------14-------|
-14-16-17----17-16-|
-------------------|
(2 x)
--------------------------------------------------|--------------------------------------------|
--------------------------------------------------|--------------------------------------------|
-----------------------------------------12-13-15-|--13-12-13-15-16-15-13-12-13-15-13-12-------|
--12-14-15-14-12-11-12-14-12-11-12-14-15----------|--------------------------------------15-14-|
--------------------------------------------------|--------------------------------------------|
--------------------------------------------------|--------------------------------------------|

-------------------|
-------------------|
----------12-------|
-12-14-15----15-14-|
-------------------|
-------------------|

-------------------------------------------------|----------------------18-19-21-22-21-19-21-22-24-|
-------------------------------15----------15-17-|-18-20-21-20-18-20-21----------------------------|
-----------------------15-16-18----18-16-18------|-------------------------------------------------|
--15-17-18-17-15-17-18---------------------------|-------------------------------------------------|
-------------------------------------------------|-------------------------------------------------|
-------------------------------------------------|-------------------------------------------------|

--19----17-18-19-17----|--18-16-14----------|--21----19-20-21-19-17-|--20-18-16----------------|
-----20-------------20-|-----------17-15-13-|-----22----------------|-----------19-17-15-------|
-----------------------|--------------------|-----------------------|--------------------17-15-|
-----------------------|--------------------|-----------------------|--------------------------|
-----------------------|--------------------|-----------------------|--------------------------|
-----------------------|--------------------|-----------------------|--------------------------|

--19----17-18-19-17----|--18-16-14----------|--21----19-20-21-19-17-|
-----20-------------20-|-----------17-15-13-|-----22----------------|
-----------------------|--------------------|-----------------------|
-----------------------|--------------------|-----------------------|
-----------------------|--------------------|-----------------------|
-----------------------|--------------------|-----------------------|

--20-18-16-------18-16-14-------16-14-12-------14-12-10-------|-------------|
-----------19-17----------17-15----------15-13----------13-11-|--9~---9/-x--|
--------------------------------------------------------------|-------------|
--------------------------------------------------------------|-------------|
--------------------------------------------------------------|-------------|
--------------------------------------------------------------|-------------|
  G   Eb  G  Ab    F   Db  Eb  E/5-   G   Eb  G  Ab    A           Ab
--7-------7--8--|--5---------------|--7-------7--8--|--9---9--9----8----|
--8---8---8--9--|--6---6---8---9---|--8---8---8--9--|--10--10-10---9----|
--7---8---7--8--|--5---6---8---9---|--7---8---7--8--|--9---9--9----8----|
------8---------|------6---8---8---|------8---------|-------------------|
----------------|------------------|----------------|-------------------|
----------------|------------------|----------------|-------------------|
  G   Eb  G  Ab    F   Db  Eb  E/5-   G   Eb  G  Ab    A
--7-------7--8--|--5---------------|--7-------7--8--|--9---9--9----9---9--9----|
--8---8---8--9--|--6---6---8---9---|--8---8---8--9--|--10--10-10---10--10-10---|
--7---8---7--8--|--5---6---8---9---|--7---8---7--8--|--9---9--9----9---9--9----|
------8---------|------6---8---8---|------8---------|--------------------------|
----------------|------------------|----------------|--------------------------|
----------------|------------------|----------------|--------------------------|
  A           Ab
--9---9--9----8------|--8----------------------------|-------------------|
--10--10-10---9------|----9---9------7---------------|-------------------|
--9---9--9----8------|------8---9------7-----6-------|-------------------|
---------------------|------------10-----8-----7-----|-------------------|
---------------------|---------------------9-----6---|--2----------------|
---------------------|-----------------------------7-|--0----------------|

-------------------|-----------------------9------|--------------------------|
-------------------|--13--11-9--11-13-------------|--11--9-8--11-9--8--------|
-------------------|-------------------10-----10--|-------------------10-----|
--4----------------|------------------------------|-----------------------11-|
--2----------------|------------------------------|--------------------------|
-------------------|------------------------------|--------------------------|
(2 x)
-------------------------------|-----------------------------||-------------------------------
--13--11-9--11-13------14------|--11--9-8--11-9--------------||--13--11-9--11-13------14------
-------------------10------10--|-----------------10----------||-------------------10------10--
-------------------------------|---------------------11------||-------------------------------
-------------------------------|-------------------------11--||-------------------------------
-------------------------------|-----------------------------||-------------------------------

--4-2-0-7-4-0-4-2-0-7-4-0-4-2-0-0-|--10-9-0-9-7-0-7-5-0-5-4-0-4-2-0-0-|
----------------------------------|-----------------------------------|
----------------------------------|-----------------------------------|
----------------------------------|-----------------------------------|
----------------------------------|-----------------------------------|
----------------------------------|-----------------------------------|

--4-2-0-7-4-0-4-2-0-7-4-0-4-2-0-0-|--7-5-0-9-7-0-10-9-0-12-10-0-14-12-0-0-|
----------------------------------|---------------------------------------|
----------------------------------|---------------------------------------|
----------------------------------|---------------------------------------|
----------------------------------|---------------------------------------|
----------------------------------|---------------------------------------|

--12-10-0-16-12-0-12-10-0-16-12-0-12-10-0-0-|--19-17-0-17-16-0-16-14-0-14-12-0-12-10-0-0-
--------------------------------------------|--------------------------------------------
--------------------------------------------|--------------------------------------------
--------------------------------------------|--------------------------------------------
--------------------------------------------|--------------------------------------------
--------------------------------------------|--------------------------------------------

----------------------|----------------------|------------------------|--------------------6-|
----------------------|----------------------|----------------------8-|--9-8-6-8-9-8-6-8-9---|
--------------------6-|--7-6---6-7-6---6-7-9-|--7-9-10-9-7-9-7-9-10---|----------------------|
--6-8-9-8-6-8-6-8-9---|------9-------9-------|------------------------|----------------------|
----------------------|----------------------|------------------------|----------------------|
----------------------|----------------------|------------------------|----------------------|

--------------------------------------|-----------19-18-16----------24-22-21-|
-----------------------------17-15-14-|--------------------------------------|
--16-15-13----------------------------|--16-15-13----------21-19-18----------|
--------------------14-12-11----------|--------------------------------------|
-----------14-13-11-------------------|--------------------------------------|
--------------------------------------|--------------------------------------|

--18-21----18-------------------------|--------------------------|-----------------|
--------20-------20-------------------|--------------------------|-----------------|
--------------21----18-21----18-------|--------------------------|-----------------|
--------------------------20----17-20-|-----17-------------------|--3--------------|
--------------------------------------|--19-------19----16----13-|--3--------------|
--------------------------------------|--------21----18----15----|--1--------------|
(8 x)
------------------------------|------------------------------|
------------------------------|------------------------------|
------------------------------|------------------------------|
--3--3--3--3--3--3--3----3----|--3--3--3--3--3--3--3----3----|
------------------------------|------------------------------|
------------------------------|------------------------------|
(4 x)
--------------------------|--------------------------|
--------------------------|--------------------------|
--------------------------|--------------------------|
--------------3-----3-----|--------------3-----3-----|
--------------------------|--------------------------|
--1-1-1-1-1-1----1-----1--|--1-1-1-1-1-1----1-----1--|
(5 x)
------------------------|------------------------|------------------------|
------------------------|------------------------|------------------------|
------------------------|------------------------|------------------------|
------------------------|------------------------|------------------------|
--3-3-3-3-3-3-3----3----|--3-3-3-3-3-3-3----3----|--3-3-3-3-3-3-3----3----|
--1-1-1-1-1-1-1----1----|--1-1-1-1-1-1-1----1----|--1-1-1-1-1-1-1----1----|

-----------------------------|-------------------|------------------|
-----------------------------|-------------------|------------------|
-----------------------------|-------------------|------------------|
--3-3-3-3-3-3-3----3----3----|--3----------------|------------------|
--3-3-3-3-3-3-3----3----3----|--3----------------|------------------|
--1-1-1-1-1-1-1----1----1----|--1----------------|------------------|

--------|----------|----------|---------|----------|----------|----------|
--------|----------|----------|---------|----------|----------|----------|
--5-----|----5--5--|--3-------|---------|--3-------|--3--3----|----------|
--5-----|----5--5--|--3-------|---------|--3-------|--3--3----|--5-------|
--3-----|----3--3--|--1-------|---------|--3-------|--1--1----|--6-------|
--------|----------|----------|---------|----------|----------|--3-------|

--------|----------|----------|
--------|----------|----------|
--------|----------|----------|
--------|--6-------|----6--6--|
--------|--6-------|----6--6--|
--3--3--|--4-------|----4--4--|

--------|----------|----------|----------|----------|----------|----------|----------|
--------|----------|----------|----------|----------|----------|----------|----------|
--------|----------|----------|----------|----------|----------|----------|----------|
--------|----------|--3-------|----------|----------|----------|----------|----------|
--------|--7----7--|----------|--6-------|--5-------|-----5--5-|----------|----------|
--0--0--|----------|--1-------|----------|----------|----------|--1-----1-|--4-----4-|

--------|----------|----------|----------|----------|----------|----------|
--------|----------|----------|----------|----------|----------|----------|
--------|----------|--7-------|--7-------|----------|--7-------|--7-------|
--------|--2-------|--7-------|--7-------|--2-------|--7-------|--7-------|
--------|-------3--|--5-------|--5-------|-------3--|--5-------|--5-------|
--0--0--|----------|----------|----------|----------|----------|----------|

--------|----------|----------|----------|----------|----------|----------|----------|
--------|----------|----------|----------|----------|----------|----------|----------|
--------|----------|----------|--3-------|--5-------|---7------|--7-------|----------|
--------|----------|----------|--3-------|--5-------|---7------|--7-------|----------|
--4--4--|--3----3--|--2----2--|--1-------|--3-------|---5------|--5-------|----------|
--------|----------|----------|----------|----------|----------|----------|----------|

--------|----------|----------|----------|----------|----------|----------|----------|
--------|----------|----------|----------|----------|----------|----------|----------|
--------|----------|----------|--3-------|--5-------|---5------|--5--5----|---5--5---|
--------|----------|----------|--3-------|--5-------|---5------|--5--5----|---5--5---|
--4--4--|--3----3--|--2----2--|--1-------|--3-------|---3------|--3--3----|---3--3---|
--------|----------|----------|----------|----------|----------|----------|----------|

-------------|-------------------|---------------------|--------------------|----------------------|
-------------|-------------------|---------------------|--------------------|----------------------|
-----12r-----|--12--------10-----|--9------------------|--8--------9b-------|--10------------12r---|
-------------|-------------------|---------------14/---|--x-----------------|----------------------|
-------------|-------------------|---------------------|--------------------|----------------------|
-------------|-------------------|---------------------|--------------------|----------------------|

---------------------------|--------------------|-----------------------|
---------------------------|--------------------|-----------------------|
--12--------10-------12p10-|--------------------|--10b-------10---------|
---------------------------|--13----------------|------------------8----|
---------------------------|--------------------|-----------------------|
---------------------------|--------------------|-----------------------|

-------------------|---------------------|---------------------|
-------------------|---------------------|---------------------|
----------------8--|--8--------7----8----|--8b-----------------|
-------------------|---------------------|---------9--9--------|
-------------------|---------------------|---------------------|
-------------------|---------------------|---------------------|

---------------------------|----------------------|----------------------------|
---------------------------|----------------------|----------------------------|
----------10----8----10----|--10b-----------------|----------12----10----12----|
---------------------------|----------8--8--------|----------------------------|
---------------------------|----------------------|----------------------------|
---------------------------|----------------------|----------------------------|

-----------------------|----------------------------|---------11--11~-------|
-----------------------|---------12/-9----8h---9----|--9b-------------------|
--12r---13-------------|----------------------------|-----------------------|
--------------------9--|--9-------------------------|-----------------------|
-----------------------|----------------------------|-----------------------|
-----------------------|----------------------------|-----------------------|

--------------10----11----|--11r-------------------|
--------------------------|------------12--12------|
--------------------------|------------------------|
--------------------------|------------------------|
--------------------------|------------------------|
--------------------------|------------------------|

-------------13----11----13----|--13r-----------------|--------20r-------------|
------12/-x--------------------|----------------13----|-----------------20/22--|
-------------------------------|----------------------|------------------------|
-------------------------------|----------------------|------------------------|
-------------------------------|----------------------|------------------------|
-------------------------------|----------------------|------------------------|

-------------------------------------------|----------------------------------------------|
--22~---22/-x--12/-19--20--22--19----------|--------------------------------------10/-12--|
-----------------------------------19------|----------------------------------------------|
---------------------------------------19--|--16--17--19--16----------16/-19~-------------|
-------------------------------------------|------------------17--------------------------|
-------------------------------------------|----------------------17----------------------|

----------------------------------------------|
--12------------------------------------------|
------10--10h12-10h12-10h12-10h12-10h12-10h12-|
----------------------------------------------|
----------------------------------------------|
----------------------------------------------|

---------------------------------10-12-13-|--12----------------------17----|
------------------------10-12-13----------|--------------------17----------|
--10~-----------9-10-12-------------------|----------13--14----------------|
--------9-10-12---------------------------|--------------------------------|
------------------------------------------|--------------------------------|
------------------------------------------|--------------------------------|

--16---------------|------14------------------|--------------------|------------------------17----|
-------17----17----|--17------15p-14--15--14b-|---15/-x--14----15--|--15b-------------17----------|
-------------------|--------------------------|--------------------|--------13--14----------------|
-------------------|--------------------------|--------------------|------------------------------|
-------------------|--------------------------|--------------------|------------------------------|
-------------------|--------------------------|--------------------|------------------------------|

--16~---|--12--14--15~--|--15--17--19~--|---------------|--------|-----------------|
--------|---------------|---------------|--18~----18----|--18~---|--18---20---21~--|
--------|---------------|---------------|---------------|--------|-----------------|
--------|---------------|---------------|------15-------|--------|-----------------|
--------|---------------|---------------|---------------|--------|-----------------|
--------|---------------|---------------|---------------|--------|-----------------|

--------------------------------8--9--11--|--13~---------------|
-----------------------------9------------|--------------------|
-------------------------10---------------|--------------------|
------10------8--10--11-------------------|--------------------|
----------11------------------------------|--------------------|
------------------------------------------|--------------------|

--13/-x--------------------------------10-11-|--13----15----16~-------|
---------------------------------11-13-------|------------------------|
------------------------10-12-13-------------|------------------------|
---------------10-12-13----------------------|------------------------|
------------13-------------------------------|------------------------|
---------13----------------------------------|------------------------|

------------------------------------------|--16----18----19~-------|
------------------------------16--18--20--|------------------------|
------------------15--17--18--------------|------------------------|
------15--17--18--------------------------|------------------------|
------------------------------------------|------------------------|
------------------------------------------|------------------------|

------------------------------------------------------14-16-18-|
---------------------------------------------14-16-17----------|
------------------------------13-15-16-15-16-------------------|
---------------13-14-16-14-16----------------------------------|
------13-14-16-------------------------------------------------|
---------------------------------------------------------------|

--19----21----22~-------|------------------|--23~---------------|
------------------------|------------------|--------------------|
------------------------|------------------|--------------------|
------------------------|------------------|--------------------|
------------------------|------------------|--------------------|
------------------------|------------------|--------------------|

Composição de Dream Theater / James LaBrie / John Petrucci
Colaboração e revisão:
  • Bruno Souza
19.552 exibições
    • ½ Tom
    • A
    • Bb
    • B
    • C
    • Db
    • D
    • Eb
    • E
    • F
    • F#
    • G
    • Ab
  • Adicionar à lista

    0 comentários

    Ver todos os comentários
    00:00 / 00:00
    outros vídeos desta música
    repetir qualidade Automático
    Outros vídeos desta música
    00:00 / 00:00
    Automático

    Cifra Club Pro

    Aproveite o Cifra Club com benefícios exclusivos e sem anúncios
    Cifra Club Pro
    Aproveite o Cifra Club com benefícios exclusivos e sem anúncios
    OK