Silent Man

Dream Theater

Composição de: John Petrucci
tom: G
G                 D
A question well served,
    A9/C#           Cadd9      Csus4
is silence like a fever?
G                 D
A voice never heard?
        A9/C#             Cadd9     Csus4
or a message with no receiver

Em7          Am7     D                Em7
Pray they won't ask, behind the stained glass
C9
there's always one more mask.

G               D            A9/C#          Cadd9       Csus4
Has man been a victim of his woman, of his father?
G                      D            A9/C#           Cadd9      Csus4
if he elects not to bother, will he suffocate their faith?

Em7          Am7   D                Em7
Desperate to fall, behind the Greated Wall
C9
That separetes us all

Refrão:

E             F#m7     A/E         B/E
When there is reason,Tonight I'm awake
E               F#m7    A/E       B/E     E
When there's no answer Arrive The Silent Man
E           F#m7      A/E         B/E
If there is balance tonight he's awake
E               F#m7          A/E     B/E     E
If they have to suffer there lies the silent man.
Solo:
E|-------------------------------|------------------------------------------|
B|--------------8--7h8p7---------|------------10------12-----10-------------|
G|--------7--9------------9--7~--|---7--9/11------11------11-----119p7------|
D|--7--9-------------------------|--------------------------------------9---|
A|-------------------------------|------------------------------------------|
E|-------------------------------|------------------------------------------|

E|--------|-------------------9--7h9p7--5--------|--------------------------|
B|--------|----------------------------------8---|-------6---6--------------|
G|---7h9--|--(9)~------6-------------------------|-----5h7---5--------------|
D|--------|---------------7----------------------|---------------75p32------|
A|--------|--------------------------------------|--------------------------|
E|--------|--------------------------------------|--------------------------|

Em7            Am7       D            Em7
Sin without deceivers,a God with no believers
C9
I could sail by on the winds of silence
     B7                Em7
And maybe they won't notice
         Am7                    D
But this time I think it'd be better if I swim.

(Refrão)
Página 1 / 1

Letras e título
Acordes e artista

resetar configurações
OK