Notificações Amigos pendentes

      Dream Theater

      Solitary Shell

      1.137 exibições
      Gtr I (B E A D G B) - 'John Myung'
      
         Intro
          Q=100
         7/4
          Gtr I
          W                W     4x
      ||-----------------|-------||
      ||o----------------|------o||
      ||-----------------|-------||
      ||-----------------|-------||
      ||o----------------|------o||
      ||-----------------|-------||
      
      
         Verse
          Q.   Q.   Q.   Q.   Q    Q.   Q.   Q.   Q.   Q    4x
      ||-------------------------|--------------------------||
      ||o------------------------|-------------------------o||
      ||-------------------------|--------------------------||
      ||--4----2-----------------|-4----2-------------------||
      ||o-----------4----4----4--|-----------0----0----0---o||
      ||-------------------------|--------------------------||
      
      
         Pre-Chorus
          $
         4/4
          Q.   E Q.   E   Q.   E S E. E E  3x
      ||----------------|------------------||
      ||o---------------|-----------------o||
      ||----------------|------------------||
      ||--2----2-2----2-|-0----0-----------||
      ||o---------------|--------0-0--0-0-o||
      ||----------------|------------------||
      
      
        Q.   E Q.   E   Q.   E S E. E E
      |---------------|-----------------|
      |---------------|-----------------|
      |---------------|-----------------|
      |---------------|-0----0-2-2--2-2-|
      |-2----2-2----2-|-----------------|
      |---------------|-----------------|
      
      
       Chorus
        Q  E Q  E E E   Q  E Q  E E E
      |---------------|---------------|
      |---------------|---------------|
      |---------------|---------------|
      |------7--7---7-|------7--7---7-|
      |-0--0------0---|-0--0------0---|
      |---------------|---------------|
      
      
        Q  E Q  E E E   Q  E Q  E E E
      |---------------|---------------|
      |---------------|---------------|
      |---------------|---------------|
      |------9--9---9-|------9--9---9-|
      |-7--7------7---|-7--7------7---|
      |---------------|---------------|
      
      
        Q  E Q  E E E   Q  E Q  E E E
      |---------------|---------------|
      |---------------|---------------|
      |------7--7---7-|------7--7---7-|
      |-0--0------0---|-0--0------0---|
      |---------------|---------------|
      |---------------|---------------|
      
      
        Q  E Q  E E E   E E E E E E E E
      |---------------|-----------------|
      |---------------|-----------------|
      |---------------|-----------------|
      |------7--7---7-|-----------------|
      |-0--0------0---|-7-7-7-7-7-7-7-7-|
      |---------------|-----------------|
      
      
        Q  E Q  E E E   Q  E Q  E E E
      |---------------|---------------|
      |---------------|---------------|
      |---------------|---------------|
      |------7--7---7-|------7--7---7-|
      |-0--0------0---|-0--0------0---|
      |---------------|---------------|
      
      
        Q  E Q  E E E   Q  E Q  E E E
      |---------------|---------------|
      |---------------|---------------|
      |---------------|------9--9---9-|
      |------9--9---9-|---------------|
      |-7--7------7---|-7--7------7---|
      |---------------|---------------|
      
      
        Q  E Q  E E E   Q  E Q  E E E   Q  E Q  E E E
      |---------------|---------------|---------------|
      |---------------|---------------|---------------|
      |------7--7---7-|------7--7---7-|---------------|
      |-0--0------0---|-0--0------0---|------7--7---7-|
      |---------------|---------------|-0--0------0---|
      |---------------|---------------|---------------|
      
      
                 To Coda
        E E E E E E E E   W          +W           +W           +W
      |-----------------|----------|------------|------------|--------|
      |-----------------|----------|------------|------------|--------|
      |-----------------|----------|------------|------------|--------|
      |-----------------|----------|------------|------------|--------|
      |-7-7-7-7-5-5-5-5-|-0--------|-(0)--------|-(0)--------|-(0)----|
      |-----------------|----------|------------|------------|--------|
      
      
         Pre-Verse
         7/4
          W                W
      ||-----------------|-------||
      ||o----------------|------o||
      ||-----------------|-------||
      ||-----------------|-------||
      ||o----------------|------o||
      ||-----------------|-------||
      
      
         Verse 2
                                                     D.S.
          Q.   Q.   Q.   Q.   Q    Q.   Q.   Q.   Q.   Q
      ||-------------------------|--------------------------||
      ||o------------------------|-------------------------o||
      ||-------------------------|--------------------------||
      ||--4----2-----------------|-4----2-------------------||
      ||o-----------4----4----4--|-----------0----0----0---o||
      ||-------------------------|--------------------------||
      
      
       Guitar Break
        &
       11/8
        W        +Q.     W        +E  S S S S
      |----------------|----------------------|
      |----------------|----------------------|
      |----------------|--------------5-5-----|
      |----------------|------------------5-5-|
      |-3--------(3)---|-3--------(3)---------|
      |----------------|----------------------|
      
      
        W        +Q.     W        +E  S S S S
      |----------------|-----------------------|
      |----------------|-----------------------|
      |----------------|--------------5-4------|
      |----------------|------------------5----|
      |-3--------(3)---|-3--------(3)-------7--|
      |----------------|-----------------------|
      
      
        E. E S Q  S S E. E S E E
      |--------------------------|
      |--------------------------|
      |--------7----7--------7---|
      |-0--0-0----0---0--0-0---7-|
      |--------------------------|
      |--------------------------|
      
      
        E. E S Q  S S E. E S S S S S   E. E S Q  S S E. E S E E
      |------------------------------|---------------------------|
      |------------------------------|---------------------------|
      |--------7----7--------5-4-----|--------7----7--------7----|
      |-0--0-0----0---0--0-0-----5---|-0--0-0----0---0--0-0---7--|
      |----------------------------7-|---------------------------|
      |------------------------------|---------------------------|
      
      
        E. E S Q  S S E. E S S S S S
      |------------------------------|
      |------------------------------|
      |--------7----7--------7-7-----|
      |-0--0-0----0---0--0-0-----7-7-|
      |------------------------------|
      |------------------------------|
      
      
        E Q  S S Q  S E E Q  S   E Q  S E Q  E E S S S S S
      |------------------------|---------------------------|
      |------------------------|---------------------------|
      |------------------------|-------------------4-2-----|
      |------------------------|-----------------------5-2-|
      |-3------3------3-3------|-3------3----3-3-----------|
      |------------------------|---------------------------|
      
      
                               6/8
                           ~~
                                                |------9:6------| |------9:6------|
        E Q  S E Q  E E S  Q    E S E E E S E   S S S S S S S S S S S S S S S S S S
      |-----------------------|---------------|-------------------------------------|
      |-----------------------|---------------|-------------------------------------|
      |-------------------/7--|---------------|-7-5-4-------------------------------|
      |-----------------------|---------------|-------7-5-4-------7-5-4-5-4-3-------|
      |-5------5----5-5-------|-5-------5-----|-------------7-5-3-------------5-3-2-|
      |-----------------------|---------------|-------------------------------------|
      
      
       Guitar Solo
        E  S E S Q  S S   E  S E S Q  S S   E  S E S Q  S S   E  S E S Q  S S
      |-----------------|-----------------|-----------------|------------------|
      |-----------------|-----------------|-----------------|------------------|
      |----------5----5-|----------5----5-|----------7----7-|----------7----7--|
      |-----------------|-----------------|-----------------|------------------|
      |-3/-x-3-3----3---|-3/-x-3-3----3---|-5\-x-5-5----5---|-5\-x-5-5----5----|
      |-----------------|-----------------|-----------------|------------------|
      
      
        E  S E S Q  S S   E  S E S Q  S S   E  S E S Q  S S   E  S E S Q  S S
      |-----------------|-----------------|-----------------|------------------|
      |-----------------|-----------------|-----------------|------------------|
      |----------5----5-|----------5----5-|----------7----7-|----------7----7--|
      |-----------------|-----------------|-----------------|------------------|
      |-3/-x-3-3----3---|-3/-x-3-3----3---|-5\-x-5-5----5---|-5\-x-5-5----5----|
      |-----------------|-----------------|-----------------|------------------|
      
      
        Q  Q  E E   Q  Q  E E   Q  Q  E E   Q  Q  E E
      |-----------|-----------|-----------|-----------|
      |-----------|-----------|-----------|-----------|
      |----5----5-|----5----5-|----7----7-|----7----7-|
      |-----------|-----------|-----------|-----------|
      |-3-----3---|-3-----3---|-5-----5---|-5-----5---|
      |-----------|-----------|-----------|-----------|
      
      
        Q  Q  E E   Q  Q  E E   Q  Q  E E   Q  Q  E E
      |-----------|-----------|-----------|-----------|
      |-----------|-----------|-----------|-----------|
      |----5----5-|----5----5-|----7----7-|----7----7-|
      |-----------|-----------|-----------|-----------|
      |-3-----3---|-3-----3---|-5-----5---|-5-----5---|
      |-----------|-----------|-----------|-----------|
      
      
       Keyboard Solo
        Q  Q  E E   Q  Q  E E   Q  Q  E E   Q  Q  E E
      |-----------|-----------|-----------|-----------|
      |-----------|-----------|-----------|-----------|
      |----5----5-|----5----5-|----7----7-|----7----7-|
      |-----------|-----------|-----------|-----------|
      |-3-----3---|-3-----3---|-5-----5---|-5-----5---|
      |-----------|-----------|-----------|-----------|
      
      
        Q  Q  E E   Q  Q  E E   Q  Q  E E   Q  Q  E E
      |-----------|-----------|-----------|-----------|
      |-----------|-----------|-----------|-----------|
      |----5----5-|----5----5-|----7----7-|----7----7-|
      |-----------|-----------|-----------|-----------|
      |-3-----3---|-3-----3---|-5-----5---|-5-----5---|
      |-----------|-----------|-----------|-----------|
      
      
        Q  Q  E E   Q  Q  E E   Q  Q  E E   Q  Q  E E
      |-----------|-----------|-----------|-----------|
      |-----------|-----------|-----------|-----------|
      |----5----5-|----5----5-|-----------|-----------|
      |-----------|-----------|----7----7-|----7----7-|
      |-3-----3---|-3-----3---|-0-----0---|-0-----0---|
      |-----------|-----------|-----------|-----------|
      
      
        Q  Q  E E   Q  Q  E E   Q  Q  E E   Q  Q  E E
      |-----------|-----------|-----------|-----------|
      |-----------|-----------|-----------|-----------|
      |----8----8-|----8----8-|----5----5-|----7----7-|
      |-----------|-----------|-----------|-----------|
      |-6-----6---|-6-----6---|-3-----3---|-5-----5---|
      |-----------|-----------|-----------|-----------|
      
      
       Outro
       11/8
        S S S S S S E S S S S S S S E S S S S S
      |-----------------------------------------|
      |-----------------------------------------|
      |---------2-3-5-3-2---------------2-5-3-2-|
      |-1---1-3-----------5-3-5-1---1-3---------|
      |---1-----------------------1-------------|
      |-----------------------------------------|
      
      
       12/8
        S S S S S S E S S S S S S S S E S S S S S S
      |----------------------------------------------|
      |---------------------------------------2---3--|
      |---------2-3-5-3-2---------------2-5-3---5----|
      |-1---1-3-----------5-3-5-1---1-3--------------|
      |---1-----------------------1------------------|
      |----------------------------------------------|
      
      
       11/8
        S S S S S S E S S S S S S S E S S S S S
      |-----------------------------------------|
      |-----------------------------------------|
      |---------4-7-5-4---------------4-7-5-4-5-|
      |-3---3-5---------7-5-7-3---3-5-----------|
      |---3---------------------3---------------|
      |-----------------------------------------|
      
      
       12/8
        S S S S S S E S S S S S S S E S S S S S S S
      |----------------------------------------------|
      |-------------------------------------4---5-4--|
      |---------4-7-5-4---------------4-7-5---7------|
      |-3---3-5---------7-5-7-3---3-5----------------|
      |---3---------------------3--------------------|
      |----------------------------------------------|
      
      
       11/8
        S S S S S S E S S S S S S S E S S S S S
      |-----------------------------------------|
      |-----------------------------------------|
      |---------6-9-7-6---------------6-9-7-6-7-|
      |-5---5-7---------9-7-9-5---5-7-----------|
      |---5---------------------5---------------|
      |-----------------------------------------|
      
      
       12/8
        S S S S S S E S S S S S S S E S S S S E.
      |--------------------------------------------|
      |--------------------------------------------|
      |---------6-9-7-6---------------6-9-7-6-7----|
      |-5---5-7---------9-7-9-5---5-7--------------|
      |---5---------------------5------------------|
      |--------------------------------------------|
      
      
       9/8
           |3-|    |3-|     |3-|     |3-|       |--3--|  |--3--|
         E e  S  E e  S  E  e  S  E  E  S  E    E  E  E  E  E  E  +H      +E
      |-----------------------------12-17-15-|--------------------------------*|
      |--------------------11-14-13----------|-11-----------------------------*|
      |------------9-14-12-------------------|----12--------------------------*|
      |----9-12-11---------------------------|-------12-11-12-----------------*|
      |-10-----------------------------------|----------------12-(12)----(12)-*|
      |--------------------------------------|--------------------------------*|
      
      
      Duration Legend
      ---------------
      + - note tied to previous; . - note dotted; .. - note double dotted
      Uncapitalized letters represent notes that are staccato (1/2 duration)
      Irregular groupings are notated above the duration line
      Duration letters will always appear directly above the note/fret number it represents the
      duration for.  Duration letters with no fret number below them represent rests.  Multi-
      bar rests are notated in the form Wxn, where n is the number of bars to rest for.  Low
      melody durations appear below the staff
      
      Tablature Legend
      ----------------
       h   - hammer-on
       p   - pull-off
       b   - bend
       pb  - pre-bend
       r   - bend release (if no number after the r, then release immediately)
       /\  - slide into or out of (from/to "nowhere")
       s   - legato slide
       S   - shift slide
      n(n) - tapped harmonic
       ~   - vibrato
       tr  - trill
       T   - tap
       TP  - trem. picking
       PM  - palm muting
      \n/  - tremolo bar dip; n = amount to dip
       \n  - tremolo bar down
       n/  - tremolo bar up
      /n\  - tremolo bar inverted dip
       =   - hold bend; also acts as connecting device for hammers/pulls
         - volume swell (louder/softer)
      
      Misc Legend
      -----------
       |  - bar
      ||o - repeat start
      o|| - repeat end
       :  - bar (freetime)
       &  - Coda
      
      
      ***************************************************************************************
      * Generated using Power Tab Editor by Brad Larsen - http://* *
      ***************************************************************************************
        Composição: Dream Theater

        Comentários 0

        140 .
        140 cancelar

        conseguiu tocar?

        covers

        Grave um vídeo tocando Solitary Shell e mande pra gente!

        Ex.: http://www.youtube.com/watch?v=0IvSvIwGdwk
        ver covers de outras músicas »
        0:00 / 0:00

        Capítulos

          2 versões de violão dificuldade exibições contribuição e correção
          2 versões de guitarra dificuldade exibições contribuição e correção
          2 versões de cavaco dificuldade exibições contribuição e correção
          2 versões de teclado dificuldade exibições contribuição e correção
          1 versão de baixo exibições contribuição e correção
          2 versões de Guitar Proformatodownloadscontribuição
          1 versão de partiturasformatodownloadscontribuição
          play/pausefechar subir/descer velocidade
          6ª corda E5ª corda A4ª corda D3ª corda G2ª corda B1ª corda E
            acordes
            publicidade
            fechar
            ok