The Best Of The Times

Dream Theater

Composição de: Mike Portnoy
tom: C
E|-----------------------------------------------------------------|
B|-----------------------------------------------------------------|
G|2-4-5~-5/9--10~---4-5/7~--12~-10~-9-7-9~-------------------------|
D|-----------------------------------------------------------------|
A|-----------------------------------------------------------------|
E|-----------------------------------------------------------------|
                                            Am
E|----------------------------------------(0~)---------------------|
B|------------------------------------------1~---------------------|
G|-4~-5~-5/9~--9~-10~-7~--5--4---------------2~--------------------|
D|-----------------------------7~-/9~-6~------2~-------------------|
A|--------------------------------------------(0~)-----------------|
E|-----------------------------------------------x-----------------|

E|-----------------------------------------------------------------|
B|-----------------------------------------------------------------|
G|------5--5/9-/12-14--10--9-9h10p9-7--/4-7-12--10---9-------------|
D|--7-9-------------------------------------------11--10--9----7---|
A|7--------------------------------------------------------10------|
E|-----------------------------------------------------------------|
                                         E
E|-------------------------------------(0~)------------------------|
B|--------------------------------------(0~)-----------------------|
G|------5-5/9--9~--10-7--5---5/7-4--8-----1~-----------------------|
D|---7-9-----------------------------------2~----------------------|
A|/7~---------------------------------------2~---------------------|
E|------------------------------------------(0~)-------------------|

Página 1 / 1

Letras e título
Acordes e artista

resetar configurações
OK