Enviar cifraEntrar

Through her eyes

Dream Theater

Cifra: Principal
exibições 47.347
Tom: G
00:12       00:24         00:28                      00:36
                                                     bend before picking

E|----------|-------------|--------------------------|--*----------------------|
B|------10--|-------------|-15b17r15--15-15-14-14\12-|-15r14-12-10-12----------|
G|-9b11-----|-11\9-7-9b11-|--------------------------|----------------11-9\7-7-|
D|----------|-------------|--------------------------|-------------------------|
A|----------|-------------|--------------------------|-------------------------|
E|----------|-------------|--------------------------|-------------------------|


00:51
                     ~          ~

E|-17b19r17-15-----------------------|
B|-------------19-15-17---19-15-17---|
G|-----------------------------------|
D|-----------------------------------|
A|-----------------------------------|
E|-----------------------------------|


COMEÇO :  G    G/B    Em   C9
          G     D     Em   C9

G
She never really had a chance  
D/F#
On that fateful moonlit night  
Em
Sacrificed without a fight  
C9
A victim of her circumstance  
  
G
Now that I've become aware  
D
And I've exposed this tragedi  
Em
A sadness grows inside of me  
C9
It all seems so unfair  

Em                                     D
I'm learning all about my life  
                                       G
By looking through her eyes  

(solo1)
G G/B Em C9
  
G
Just beyond the churchyard gates  
D/F#
Where the grass is overgrown  
Em
I saw the writing on her stone  
C9
I felt like I would suffocate  
  
G
In loving memory of our child  
D
So innocent, eyes open wide  
Em
I felt so empty as I cried  
C9
Like part of me had died  
  
Em                                    D
I'm learning all about my life  
                                        Am
By looking through her eyes  
  

And as her image  
C
Wandered through my head  
G
I wept just like a baby  
        D
As I lay awake in bed  
  
Am
And I know what it's like  
C
To lose someone you love  
         Em                       D
And this felt just the same  
  
G
She wasn't given any choice  
D/F#
Desperation stole her voice  
Em
I've been given so much more in life  
C9
I've got a son, I've got a wife  

G  
I had to suffer one last time  
D/F#
To grieve for her and say goodbye  
Em
Relive the anguish of my past  
C9
To find out who I was at last  
  
Em                              D
The door has opened wide  
                                 C               
I'm turning with the tide  
Am                                 G              G/B            Em             C9      
Looking through her eyes.(solo 2)  G                D             Em             C9


Solo 1:


E|-----------------------------------------------|
B|----10b--12r10----8~------8----10--12----5~----|
G|-7---------------------------------------------|
D|-----------------------------------------------|
A|-----------------------------------------------|
E|-----------------------------------------------|


E|-----------------------------------------------|
B|---7b(7)---------------------------------------|
G|------------4---5----4--5---4------------------|
D|-----------------------------------------------|
A|-----------------------------------------------|
E|-----------------------------------------------|




Solo 2 :


E|-----------------------------------------------|
B|----10b--12r10--8~-----8---10---12----5~-------|
G|-7---------------------------------------------|
D|-----------------------------------------------|
A|-----------------------------------------------|
E|-----------------------------------------------|


E|-----------------------------------------------|
B|---7b(7)---------------------------------------|
G|------------4--5----4---5--7-------------------|
D|-----------------------------------------------|
A|-----------------------------------------------|
E|-----------------------------------------------|


E|-----------------------------------10---8---7--|
B|----10b--10b(10)--8--10------------------------|
G|-------------------------------7---------------|
D|-----------------------------------------------|
A|-----------------------------------------------|
E|-----------------------------------------------|


E|---------------------------------------------------|
B|---10-10---8------8----10---12----7h8--------------|
G|-------------------------------------------9-------|
D|---------------------------------------------------|
A|---------------------------------------------------|
E|---------------------------------------------------|


E|-------------------------|      
B|-------------------------|         
G|----4----2---------------|            
D|-----------------5-------|               
A|-------------------------|
E|-------------------------|


VOLTE AO SOLO 1:

Tradução:

b = Bend Full
r = Bend Release
~ = vibrato com a mão esquerda
h = Hammer - On
  • 1
  • 2
  • 3
  • 4
  • 5
  • 6
  • 7
  • 8
  • 9
  • 10
  • 11
  • 12
    Acordes para:
      Colaboração e revisão:
      • Neto Chiaradia

      0 comentários

        mostrar mais comentários

        Conseguiu tocar?

        9tocaram0ainda não

        Grave um vídeo tocando Through her eyes e mande pra gente!

        00:00 / 00:00
        outros vídeos desta música
        repetirqualidadeautomática
        • automática
        Outro vídeos desta música
          00:00 / 00:00
          automática
          • automática
          Acordes para:violão e guitarra
          dificuldadeexibiçõescontribuições
          1 versão de Tab de baixoexibiçõescontribuições
          1 versão de Guitar Proformatodownloadscontribuição
          fecharplay/pause subir/descer velocidade
            acordes
            fechar
            OK
            Feedback