Bodies

Drowning Pool

Composição de: Marilyn Manson
tom: D
Introdução: (Repetir 3x)

B#  Gb  B#  E#  Ab  Db

Listin to song for all the rythem and stuff.

-|----------------------------------------------------------------------------
-|----------------------------------------------------------------------------
-|7-7-7-----------------------------------------------------------------------
-|x-x-x-----------------------------------------------------------------------
-|5-5-5----6666---0000--2\6666------------------------------------------------
-|---------6666---0000--2\6666------------------------------------------------
 Let the boides hit the FLOOR! After that play this two times                 

-|------101010------111111----------------------------------------------------
-|------x-x-x-------x-x-x-----------------------------------------------------
-|------7-7-7-------8-8-8-----------------------------------------------------
-|----------------------------------------------------------------------------
-|-555----------555-----------------------------------------------------------
-|----------------------------------------------------------------------------
    Do this part with Wah and tremlo picking    4 times                       

-|----------------------------------------------------------------------------
-|----------------------------------------------------------------------------
-|----------------------------------------------------------------------------
-|----------------------------------------------------------------------------
-|-0002--0023-----------------------------------------------------------------
-|-0002--0023-----------------------------------------------------------------
                ^ Verse  ^  Not sure about this timing                        

-|---101010---111111----------------------------------------------------------
-|---x-x-x----x-x-x-----------------------------------------------------------
-|---7-7-7----8-8-8-----------------------------------------------------------
-|----------------------------------------------------------------------------
-|00-------00-----------------------------------------------------------------
-|00-------00-----------------------------------------------------------------
                   ^ Pre-Chorus ^   8 times                                   

-|----------------------------------------------------------------------------
-|----------------------------------------------------------------------------
-|----------------------------------------------------------------------------
-|----------------------------------------------------------------------------
-|----------------------------------------------------------------------------
-|----------------------------------------------------------------------------
  The intro is the chorus, Not sure again about the timing.                   

-|----101010------111111------------------------------------------------------
-|----x-x-x--------x-x-x------------------------------------------------------
-|----7-7-7--------7-7-7------------------------------------------------------
-|----------------------------------------------------------------------------
-|-000--------000-------------------------------------------------------------
-|-000--------000-------------------------------------------------------------
        Pre-Solo    W/ Wah                                                    

-|----10---10\-11-------------------------------------------------------------
-|----x----x-\-x--------------------------------------------------------------
-|----7----7\--8--------------------------------------------------------------
-|--0----0--------------------------------------------------------------------
-|----------------------------------------------------------------------------
-|----------------------------------------------------------------------------

SOLO: (Feito com Wah-wah)
Página 1 / 1

Letras e título
Acordes e artista

resetar configurações
OK