Step Up

Drowning Pool

Composição de: Drowning Pool
tom: C
tuning: B-F#-B-E-G#-C# (low to high)-"slipknot tuning"

C#|---------------------------------------------------------------------
G#|---------------------------------------------------------------------
E |---------------------------------------------------------------------
B |12/--3--5--6--0--0--3--5--6--0--0--7--7--7--3--5--6--0--0--5-5-5--0-0
F#|12/--3--5--6--0--0--3--5--6--0--0--5--5--5--3--5--6--0--0--3-3-3--0-0
B |12/--3--5--6--0--0--3--5--6--0--0-----------3--5--6--0--0---------0-0

C#|--------|               (intro & chorus) 
G#|--------|
E |--------| X2 
B |-8--8--8|
F#|-6--6--6|
B |--------|
Página 1 / 1

Letras e título
Acordes e artista

resetar configurações
OK