Tear Away Solo

Drowning Pool

tom: B (forma dos acordes no tom de Db ) Afinação: D G C F A D
Drop C Tuning (CGCFAD)

This is the Tear Away tab with my interpretation of the solo in the song
at 2:54. I believe this tabbed out solo to be absolutely correct although I may
be wrong. If so please feel free to email me at * with the
corrections or feel free to correct them yourselves and send it in as I did.


and vibrato accenting as well.

D|--\17--17-17-17-17-17-17-17--------
A|-----------------------------------|
F|-----------------------------------|
C|-----------------------------------|
G|-----------------------------------|
C|-----------------------------------|

D|-15h17p15--15-15-15-15--18-18-18-17-17--17h18p17-|
A|-------------------------------------------------|
F|-------------------------------------------------|
C|-------------------------------------------------|
G|-------------------------------------------------|
C|-------------------------------------------------|

D|---------------------------------------------------------------|
A|--18-17--------------------------------------------------------|
F|--------19-19-19--17h19p17--17-17-17-17--20-20-20-20-19-19-----|
C|---------------------------------------------------------------|
G|---------------------------------------------------------------|
C|---------------------------------------------------------------|

D|--20h22p20--20h22p20--20h22p20-20--17h20p17~-20--17h2017--------------------|
A|---------------------------------------------------------20--20h22p20-20-20-|
F|----------------------------------------------------------------------------|
C|----------------------------------------------------------------------------|
G|----------------------------------------------------------------------------|
C|----------------------------------------------------------------------------|

D|----------------------------------------------------------------------------------------|
A|----------------------------------------------------------------------------------------|
F|--17h19p17-17-17h19p17-17h19-17h19-17-17-17--14h16-14-14-14-14-14--17-17-17-17-17-\-----|
C|----------------------------------------------------------------------------------------|
G|----------------------------------------------------------------------------------------|
C|----------------------------------------------------------------------------------------|
Página 1 / 1

Letras e título
Acordes e artista

resetar configurações
OK