Existe Um Olhar

Dunamis Sounds

Composição de: Dunamis Sounds
tom: Bb (forma dos acordes no tom de G ) Capotraste na 3ª casa
[Intro] G  C7M

  G    
E|----------------------------------------------------|
B|----------------------------------------------------|
G|----------------------------------------------------|
D|-----0-0----0-0------0----0-0----0-0------0---------|
A|---0h2----0h2----0h2----0h2----0h2----0h2-----------|
E|---3------3------3------3------3------3-------------|

   C7M
E|----------------------------------------------------|
B|----------------------------------------------------|
G|-----0-0----0-0------0----0-0----0-0------0---------|
D|---0h2----0h2----0h2----0h2----0h2----0h2-----------|
A|---3------3------3------3------3------3-------------|
E|----------------------------------------------------|

          G
Existe um olhar
           C7M
Doce que sempre me cerca
           G
Me inspira amar
         C7M
Soprando vida e esperança
               G
Me ensinando a não julgar
             C7M
Ouvir mais e me entregar
          G
Quero aprender
           C7M
Com Teu coração

[Refrão]

 C9
Permanecerei até o fim
   G                     D/G
Criarei minhas raizes em Ti
 C9
Minha vida inteira
          G    D/G
Pra Te conhecer        

                  C7M
Que não seja mais eu em mim

Seja Sua voz, Seu coração
                  G
Que não seja mais eu em mim
            D/G
Seja Seus olhos, pés e mãos 

                  C9
Que não seja mais eu em mim

Seja Sua voz, Seu coração
                  G
Que não seja mais eu em mim
            D/G
Seja Seus olhos, pés e mãos

( C7M  G  D/G )
Página 1 / 1

Letras e título
Acordes e artista

resetar configurações
OK