Cifra Club

Aprenda

En Algun Lugar

Duncan Dhu

Tab de baixo: Principal
En algún lugar (BAJ)  T
AUTOR: Mikel Erentxun, Diego Vasallo
ALBUM: Canciones
esta es la tabletura completa y perfecta
tabbed by jonas 909 the correct tab .
solo escucha la cancion para os cambios k la pasen bien de putas venga.
INTRO

G-------------------------------------------|
D-------------------------------------------|
A---10-9-7/(2)--3---3---3333333333333333333-|
E-------------------------------------------|

G----------------------------------------|
D----------------------------------------|
A------------5-55-55--7-77-77--3-33-33---|
E---3-33-33------------------------------|

G----------------------------------------|
D----------------------------------------|
A------------5-55-55--7-77-77--3-33-33---|
E---3-33-33------------------------------|

EN ALGUN LUGAR DE UN GRAN PAIS....

G----------------------------------------|
D----------------------------------------|
A-----------------55----------------55---|
E---0-00-0---3--3-----0-00-0---3--3------|

G----------------------------------------|
D----------------------------------------|
A-----------------55----------------55---|
E---0-00-0---3--3-----0-00-0---3--3------|

G----------------------------------------|
D----------------------------------------|
A-----------------55----------------55---|
E---0-00-0---3--3-----0-00-0---3--3------|

G----------------------------------------|
D----------------------------------------|
A-----------------55----------------55---|
E---0-00-0---3--3-----0-00-0---3--3------|

Y EN LAS SOMBRAS.....

G-----------------------------------------------------|
D-----------------------------------------------------|
A------------2-22-2---3-33-3--10-9-7-77-7---2-22-2----|
E---0-00-0--------------------------------------------|

G-----------------------------------------|
D-----------------------------------------|
A---3-33-3---3-33-3---3333333333333333333-|
E-----------------------------------------|

G----------------------------------------|
D----------------------------------------|
A------------5-55-55--7-77-77--3-33-33---|
E---3-33-33------------------------------|

G----------------------------------------|
D----------------------------------------|
A------------5-55-55--7-77-77--3-33-33---|
E---3-33-33------------------------------|

NO HAY CAMINO QUE....

G----------------------------------------|
D----------------------------------------|
A------------5-55-55--7-77-77--3-33-33---|
E---3-33-33------------------------------|

G----------------------------------------|
D----------------------------------------|
A------------5-55-55--7-77-77--3-33-33---|
E---3-33-33------------------------------|

PRE-SOLO

G----------------------------------|
D----------------------------------|
A--------------5--------------5----|
E---000---3--3-----000---3--3------|

G-------------------------|
D-------------------------|
A--------------5----------|
E---000---3--3-----000----|

SOLO

G----------------------------------------|
D----------------------------------------|
A--------55----------------55------------|
E---3--3-----0-00-0---3--3-----0-00-0----|

G----------------------------------------|
D----------------------------------------|
A--------55----------------55------------|
E---3--3-----0-00-0---3--3-----0-00-0----|

G-------------------|
D-------------------|
A--------55---------|
E---3--3-----000----|

EN ALGUN LUGAR DE UN GRAN PAIS....

G----------------------------------------|
D----------------------------------------|
A-----------------55----------------55---|
E---0-00-0---3--3-----0-00-0---3--3------|

G----------------------------------------|
D----------------------------------------|
A-----------------55----------------55---|
E---0-00-0---3--3-----0-00-0---3--3------|

G----------------------------------------|
D----------------------------------------|
A-----------------55----------------55---|
E---0-00-0---3--3-----0-00-0---3--3------|

G----------------------------------------|
D----------------------------------------|
A-----------------55----------------55---|
E---0-00-0---3--3-----0-00-0---3--3------|

UN SILBIDO....

G-----------------------------------------------------|
D-----------------------------------------------------|
A------------2-22-2---3-33-3--10-9-7-77-7---2-22-2----|
E---0-00-00-------------------------------------------|

G-----------------------------------------|
D-----------------------------------------|
A---3-33-3---3-33-3---3333333333333333333-|
E-----------------------------------------|

Y LA TIERRA AQUI....

G----------------------------------------|
D----------------------------------------|
A------------5-55-55--7-77-77--3-33-33---|
E---3-33-33------------------------------|

G----------------------------------------|
D----------------------------------------|
A------------5--5-5---7--7-7---3--3-3----|
E---3--3-3-------------------------------|

G----------------------------------------|
D----------------------------------------|
A------------5--5-5---7--7-7---3--3-3----|
E---3--3-3-------------------------------|

G----------------------------------------|
D----------------------------------------|
A------------5--5-5---7--7-7---3--3-3----|
E---3--3-3-------------------------------|

NA, NANANANANA....

G----------------------------------------|
D----------------------------------------|
A------------5-55-55--7-77-77---3-33-33--|
E---3-33-33------------------------------|

G----------------------------------------|
D----------------------------------------|
A------------5-55-55--7-77-77--3-33-33---|
E---3-33-33------------------------------|

G----------------------------------------|
D----------------------------------------|
A------------5-55-55--7-77-77--3-33-33---|
E---3--3-3-------------------------------|

G----------------------------------------|
D----------------------------------------|
A------------5-55-55--7-77-77--3-33-33---|
E---3-33-33------------------------------|

G----------|
D----------|
A----------|
E---000----|

100% perfectamente completa
Composição de Diego Vasallo / Mikel Erentxun
986 exibições

0 comentários

Ver todos os comentários

Conseguiu tocar?

1 Tocaram 1 Ainda não

Grave um vídeo tocando En Algun Lugar e nos envie!

00:00 / 00:00
outros vídeos desta música
repetir qualidade Automático
Outros vídeos desta música
00:00 / 00:00
Automático

Cifra Club Pro

Aproveite o Cifra Club com benefícios exclusivos e sem anúncios
Cifra Club Pro
Aproveite o Cifra Club com benefícios exclusivos e sem anúncios
OK