Cifra Club

Aprenda

Palabras Sin Nombre

Duncan Dhu

Cifra: Principal (violão e guitarra)
tom: C
Intro:

 Am  Dm  Em  Am (3x)
E|------------------|
B|------------------|
G|------------------|
D|------------------| 3x
A|----------2--3--0-|
E|-0--3--0----------|

Verso:

Am
Aqui esta la historia
                    Dm         C Em
a quien quiera escuchar
Am
es la triste historia
                   Dm
de quien quiso regalar
   C        Em     Am
la luna sin preguntar
         Em      F          C   Em   Am
cuantas veces, tenia una razon
        Em              F
cuantas veces, fueron dos

Ponte: 

E|------------------|
B|------------------|
G|------------------|
D|------------------|
A|----------2--3--0-|
E|-0--3--0----------|

Verso:

Am
Lagrimas no brotan
                     Dm        C   Em
si uno no quiere llorar
Am
Más el tiempo pesa
                   Dm
y uno no puede olvidar
    C     E       Am
el dia ya se oculto
        Em      F           C   Em   Am
si el otoño no te quiere dejar
      Em     F
el invierno llegara

Coro:

Am          Dm
y aquí en la noche
C               E                 Am
no encuentro lugar donde descansar
               Dm
y aunque lo intente
C             E
palabras sin nombre

Ponte:

E|-----------------------------|
B|---5--3--1-------5--3--1-----|
G|------------2-------------2--|
D|-----------------------------|
A|-----------------------------|
E|-----------------------------|

E|-------------------------3--------------|
B|--------1-------1--3--5-----5--3--1-----|
G|--0--2-------2-----------------------2--|
D|----------------------------------------|
A|----------------------------------------|
E|----------------------------------------|

Estribillo:

Am         Em   F         C   Em   Am
cuantas veces tenia una razon,
          Em           F
cuantas veces fueron dos
Am     Em       F           C   Em   Am
si el otoño no te quiere dejar
      Em          F
el invierno, llegara...

Coro:
Am          Dm
y aquí en la noche
C               E                 Am
no encuentro lugar donde descansar
               Dm
y aunque lo intente
C             E
palabras sin nombre       (2x)

Solo:

E|---------------------------------------------------|
B|---5--3--5--6-----5--3--5--------------------------|
G|-------------------------5--7--9--7--5--4--5-------|
D|---------------------------------------------------|
A|---------------------------------------------------|
E|---------------------------------------------------|

E|---------------------------------------------------|
B|---5--3--5--6----8--6--5----5--3-------------------|
G|----------------------------------5--7--9----------|
D|---------------------------------------------------|
A|---------------------------------------------------|
E|---------------------------------------------------|

E|---------------------------------------------------|
B|---5--3--5--6----8--6--5---------------------------|
G|----------------------------7--5--7---5--4--5------|
D|---------------------------------------------------|
A|---------------------------------------------------|
E|---------------------------------------------------|

E|-----------------5---------------------------------|
B|---5--3--5--6-------6--5----5--3-------------------|
G|----------------------------------5--7--9----------|
D|---------------------------------------------------|
A|---------------------------------------------------|
E|---------------------------------------------------|

E|---------------------------------------------------|
B|-------------3--5--6-----8--6--5-------------------|
G|----3--4--5-----------------------7--5--7--5--4--5-|
D|---------------------------------------------------|
A|---------------------------------------------------|
E|---------------------------------------------------|
Colaboração e revisão:
  • Johan Beltrán
532 exibições
    • ½ Tom
    • A
    • Bb
    • B
    • C
    • Db
    • D
    • Eb
    • E
    • F
    • F#
    • G
    • Ab
  • Adicionar à lista

    0 comentários

    Ver todos os comentários

    Conseguiu tocar?

    1 Tocaram 0 Ainda não

    Grave um vídeo tocando Palabras Sin Nombre e nos envie!

    00:00 / 00:00
    outros vídeos desta música
    repetir qualidade Automático
    Outros vídeos desta música
    00:00 / 00:00
    Automático

    Cifra Club Pro

    Aproveite o Cifra Club com benefícios exclusivos e sem anúncios
    Cifra Club Pro
    Aproveite o Cifra Club com benefícios exclusivos e sem anúncios
    OK