Cifra Club

O Meu Lugar É o Céu

Dunga

Cifra: Ao-vivo (violão e guitarra)
tom: C
[Intro]

    Em D5 C5
E|--------------------------------------------|
A|--------------------------------------------|
B|-------------------------4-5-4-2---------- -|
G|--2--4-5-4-0--4-5-4---4-5--------5-4-2-0-2--|
D|-------------------3------------------------|
E|--------------------------------------------|

   Em D5 C5
E|--------------------------------------------|
A|--------------------------------------------|
B|--------------------------4~----------------|
G|--2--4-5-4-0--4-5-4---4-5-------------------|
D|-------------------3------------------------|
E|--------------------------------------------|

                 G5
O meu lugar é o Céu
                     D5
E lá que eu quero morar
                 Em  D5 C5
O meu lugar é o Céu       E lá que eu quero morar
                               

E|---------------------|
A|---3\4/3-------------|
B|---------4\5/4-------|
G|---------------------|
D|---------------------|
E|---------------------|

    Em
Eu sei  não vale a pena
       D5
Tanta grana, poder, fama
      C5
Pois isso tudo aqui vou deixar
   Em                         D5
E sei que lá no céu só chega aquele que na terra
      C5
Seus bens soube compartilhar

E|------------------|
A|------------------|
B|------------------|
G|------------------|
D|--3-2-0-2-3-2-----|
E|--------------3-2-|

      Em                   D5
Por isso todo dia, dia-a-dia, a cada hora
     C5
Eu sei com Deus eu posso contar
      Em                     D5
E a cada passo certo que eu der aqui na terra
      C5
Mais perto Dele eu vou ficar

                 G5
O meu lugar é o Céu
                     D5
E lá que eu quero morar
                 Em  D5 C5
O meu lugar é o Céu       E lá que eu quero morar
                               

    Em
Eu sei  não vale a pena
       D5
Tanta grana, poder, fama
      C5
Pois isso tudo aqui vou deixar
   Em                         D5
E sei que lá no céu só chega aquele que na terra
      C5
Seus bens soube compartilhar

[Solo]

E|-------------------------------------------------|
A|-------------------------------------------------|
B|-------------------------4-5-4-2---------- ------|
G|--2--4-5-4-0--4-5-4---4-5--------5-4-2-0-2-------|
D|-------------------3-----------------------------|
E|-------------------------------------------------|

E|--------------------5-7\10b12r10--|
A|--------------5-7-8---------------|
B|-----------4-5--------------------|
G|--2--4-5-4------------------------|
D|----------------------------------|
E|----------------------------------|

A5                     D5  A5                G5
Buscar, bater, saber pedir e até mesmo suplicar
A5                 D5
Eu tenho um endereço
      G5          F  C5  F
No céu vou morar
    G5            F  C5
Eu tenho um lugar

                 G5
O meu lugar é o Céu
                     D5
E lá que eu quero morar
                 Em  D5 C5
O meu lugar é o Céu        E lá que eu quero morar
                               


(Riff do refrão)

E|------------------------------------------------|
A|--8-8-x-8-x-8-8-x-8-x-7-7-x-7-8-7-5-------------|
B|--7-7-x-7-x-7-7-x-7-x-7-7-x-7-7-7-7-------------|
G|-------------------------------------2-2-7-5----|
D|-------------------------------------2-2-5-3----|
E|---------------------------------------------- -|
00:00 / 00:00
Outros vídeos desta música
Repetir
Outros vídeos desta música
Composição de Dunga
Colaboração e revisão:
  • Luciano Ferreira
3.319 exibições
    • ½ Tom
    • A
    • Bb
    • B
    • C
    • Db
    • D
    • Eb
    • E
    • F
    • F#
    • G
    • Ab
  • Adicionar à lista

    0 comentários

    Ver todos os comentários

    Entre para oCifra Club PRO

    Tenha acesso a benefícios exclusivos no App e no Site

    • Chega de anúncios

    • Prioridade de compra em lançamentos

    • Mais recursos no app do Afinador

    • Atendimento Prioritário

    • Descontos nos produtos Cifra Club

    • Ajude a produzir mais conteúdo

    00:00 / 00:00

    Cifra Club Pro

    Aproveite o Cifra Club com benefícios exclusivos e sem anúncios
    Cifra Club Pro
    Aproveite o Cifra Club com benefícios exclusivos e sem anúncios
    OK