Fora da Lei

Ed Motta

Composição de: Ed Motta / Rita Lee
tom: F#
[Intro] F#7M  E/F#  F#7M  E/F#

   F#7M           E/F#
E|----x--------x------x--------x------------|
B|-2--x--2---2-x---0--x--0---0-x------------|
G|-3--x--3---3-x---1--x--1---1-x------------|
D|-3--x--3---3-x---2--x--2---2-x------------|
A|----x--------x------x--------x------------|
E|-2--x----2---x---2--x----2---x------------|


[Primeira Parte]

F#7M         E/F#
     Cidade nua
F#7M         E/F#
     Noite néon
F#7M         E/F#   C7(9)
     Gata de ru_____a 
         B7M     D7M/E
Faz ron-ron ao luar

F#7M          E/F#
     Saio da cama
F#7M           E/F#
     Pulo a janela
F#7M              E/F#  C7(9)
     Ninguém como el____a, 
    B7M    D7M/E
Ao luar

[Primeira Parte] - 2x

Parte 1 de 4
  F#7M             E/F#
E|----x--------x------x--------x------------|
B|-2--x--2---2-x---0--x--0---0-x------------|
G|-3--x--3---3-x---1--x--1---1-x------------|
D|-3--x--3---3-x---2--x--2---2-x------------|
A|----x--------x------x--------x------------|
E|-2--x----2---x---2--x----2---x------------|

Parte 2 de 4
  F#7M             E/F#
E|----x--------x------x--------x------------|
B|-2--x--2---2-x---0--x--0---0-x------------|
G|-3--x--3---3-x---1--x--1---1-x------------|
D|-3--x--3---3-x---2--x--2---2-x------------|
A|----x--------x------x--------x------------|
E|-2--x----2---x---2--x----2---x------------|

Parte 3 de 4
   F#7M            E/F#  C7(9)
E|----x--------x------x-----x---------------|
B|-2--x--2---2-x---0--x--3--x---------------|
G|-3--x--3---3-x---1--x--3--x---------------|
D|-3--x--3---3-x---2--x--2--x---------------|
A|----x--------x------x--3--x---------------|
E|-2--x----2---x---2--x-----x---------------|

Parte 4 de 4
  B7M              D7M/E
E|----x--------x---9--x--9---9-x------------|
B|-4--x--4---4-x---7--x--7---7-x------------|
G|-3--x--3---3-x---7--x--7---7-x------------|
D|-4--x--4---4-x------x--------x------------|
A|-2--x----2---x------x--------x------------|
E|----x--------x---0--x----0---x------------|

[Pré-Refrão]

Em7(9)     A7(13)
       Mia,
           D7M(9)    B7(13-)
arranha o céu
Em7(9)     A7(13)
       Mia,       
        D7M(9)  C#7
Lua de mel ao léu, well

[Pré-Refrão]

Parte 1 de 4
  Em7(9)           A7(13)
E|----x--------x------x--------x------------|
B|-7--x--7---7-x---7--x--7---7-x------------|
G|-7--x--7---7-x---6--x--6---6-x------------|
D|-5--x--5---5-x---5--x--5---5-x------------|
A|-7--x----7---x------x--------x------------|
E|----x--------x---5--x----5---x------------|

Parte 2 de 4
  D7M(9)           B7(13-)
E|----x--------x------x--------x------------|
B|-5--x--5---5-x---8--x--8---8-x------------|
G|-6--x--6---6-x---8--x--8---8-x------------|
D|-4--x--4---4-x---7--x--7---7-x------------|
A|-5--x----5---x------x--------x------------|
E|----x--------x---7--x----7---x------------|

Parte 3 de 4
   Em7(9)          A7(13)
E|----x--------x------x--------x------------|
B|-7--x--7---7-x---7--x--7---7-x------------|
G|-7--x--7---7-x---6--x--6---6-x------------|
D|-5--x--5---5-x---5--x--5---5-x------------|
A|-7--x----7---x------x--------x------------|
E|----x--------x---5--x----5---x------------|

Parte 4 de 4
  D7M(9)           C#7
E|----x--------x------x----------x----------|
B|-5--x--5---5-x---9--x--9----9--x----------|
G|-6--x--6---6-x---10-x--10---10-x----------|
D|-4--x--4---4-x---9--x--9----9--x----------|
A|-5--x----5---x------x----------x----------|
E|----x--------x---9--x-----9----x----------|

[Refrão]

F#7M                E/F#  C7(9)   B7M
     Dois gatos pingados fora da lei
          D7M/E          F#7M
Ela é a rainha, eu o rei
             E/F#  C7(9)   B7M
Farra no telhado  fora da lei
      D7M/E
Tudo bem

F#7M             E/F#  C7(9)   B7M
     Sobe desce muros fora da lei
     D7M/E            F#7M   
Ela sai por onde entrei
             E/F#   C7(9)   B7M  D7M/E
Gritos e sussurros fora da lei

Parte 1 de 2
   F#7M            E/F#  C7(9)
E|----x--------x------x-----x---------------|
B|-2--x--2---2-x---0--x--3--x---------------|
G|-3--x--3---3-x---1--x--3--x---------------|
D|-3--x--3---3-x---2--x--2--x---------------|
A|----x--------x------x--3--x---------------|
E|-2--x----2---x---2--x-----x---------------|

Parte 2 de 2
  B7M              D7M/E
E|----x--------x---9--x--9---9-x------------|
B|-4--x--4---4-x---7--x--7---7-x------------|
G|-3--x--3---3-x---7--x--7---7-x------------|
D|-4--x--4---4-x------x--------x------------|
A|-2--x----2---x------x--------x------------|
E|----x--------x---0--x----0---x------------|


[Introdução] - 2x

   F#7M           E/F#
E|----x--------x------x--------x------------|
B|-2--x--2---2-x---0--x--0---0-x------------|
G|-3--x--3---3-x---1--x--1---1-x------------|
D|-3--x--3---3-x---2--x--2---2-x------------|
A|----x--------x------x--------x------------|
E|-2--x----2---x---2--x----2---x------------|

[Segunda Parte]


F#7M         E/F#
     Cidade nua
F#7M          E/F#
     Faz serenata
F#7M           E/F#   C7(9)
     Beijo na bo_____ca
      B7M      D7M/E
Vira-lata, de lixo
F#7M          E/F#
     Amor de bicho
F#7M           E/F#
     Paixão maluca
F#7M          E/F#  C7(9)
     Cama de ga____to
      B7M       D7M/E
Kama Sutra ao luar

Parte 1 de 4
  F#7M             E/F#
E|----x--------x------x--------x------------|
B|-2--x--2---2-x---0--x--0---0-x------------|
G|-3--x--3---3-x---1--x--1---1-x------------|
D|-3--x--3---3-x---2--x--2---2-x------------|
A|----x--------x------x--------x------------|
E|-2--x----2---x---2--x----2---x------------|

Parte 2 de 4
  F#7M             E/F#
E|----x--------x------x--------x------------|
B|-2--x--2---2-x---0--x--0---0-x------------|
G|-3--x--3---3-x---1--x--1---1-x------------|
D|-3--x--3---3-x---2--x--2---2-x------------|
A|----x--------x------x--------x------------|
E|-2--x----2---x---2--x----2---x------------|

Parte 3 de 4
   F#7M            E/F#  C7(9)
E|----x--------x------x-----x---------------|
B|-2--x--2---2-x---0--x--3--x---------------|
G|-3--x--3---3-x---1--x--3--x---------------|
D|-3--x--3---3-x---2--x--2--x---------------|
A|----x--------x------x--3--x---------------|
E|-2--x----2---x---2--x-----x---------------|

Parte 4 de 4
  B7M              D7M/E
E|----x--------x---9--x--9---9-x------------|
B|-4--x--4---4-x---7--x--7---7-x------------|
G|-3--x--3---3-x---7--x--7---7-x------------|
D|-4--x--4---4-x------x--------x------------|
A|-2--x----2---x------x--------x------------|
E|----x--------x---0--x----0---x------------|

[Pré-Refrão]

Em7(9)     A7(13)
       Mia,
           D7M(9)    B7(13-)
arranha o céu
Em7(9)     A7(13)
       Mia,       
        D7M(9)  C#7
Lua de mel ao léu, well

Parte 1 de 4
  Em7(9)           A7(13)
E|----x--------x------x--------x------------|
B|-7--x--7---7-x---7--x--7---7-x------------|
G|-7--x--7---7-x---6--x--6---6-x------------|
D|-5--x--5---5-x---5--x--5---5-x------------|
A|-7--x----7---x------x--------x------------|
E|----x--------x---5--x----5---x------------|

Parte 2 de 4
  D7M(9)           B7(13-)
E|----x--------x------x--------x------------|
B|-5--x--5---5-x---8--x--8---8-x------------|
G|-6--x--6---6-x---8--x--8---8-x------------|
D|-4--x--4---4-x---7--x--7---7-x------------|
A|-5--x----5---x------x--------x------------|
E|----x--------x---7--x----7---x------------|

Parte 3 de 4
   Em7(9)          A7(13)
E|----x--------x------x--------x------------|
B|-7--x--7---7-x---7--x--7---7-x------------|
G|-7--x--7---7-x---6--x--6---6-x------------|
D|-5--x--5---5-x---5--x--5---5-x------------|
A|-7--x----7---x------x--------x------------|
E|----x--------x---5--x----5---x------------|

Parte 4 de 4
  D7M(9)           C#7
E|----x--------x------x----------x----------|
B|-5--x--5---5-x---9--x--9----9--x----------|
G|-6--x--6---6-x---10-x--10---10-x----------|
D|-4--x--4---4-x---9--x--9----9--x----------|
A|-5--x----5---x------x----------x----------|
E|----x--------x---9--x-----9----x----------|

[Refrão]

F#7M                E/F#  C7(9)   B7M
     Dois gatos pingados fora da lei
          D7M/E          F#7M
Ela é a rainha, eu o rei
             E/F#  C7(9)   B7M
Farra no telhado  fora da lei
      D7M/E
Tudo bem

F#7M             E/F#  C7(9)   B7M
     Sobe desce muros fora da lei
     D7M/E            F#7M   
Ela sai por onde entrei
             E/F#   C7(9)   B7M  D7M/E
Gritos e sussurros fora da lei

Parte 1 de 2
   F#7M            E/F#  C7(9)
E|----x--------x------x-----x---------------|
B|-2--x--2---2-x---0--x--3--x---------------|
G|-3--x--3---3-x---1--x--3--x---------------|
D|-3--x--3---3-x---2--x--2--x---------------|
A|----x--------x------x--3--x---------------|
E|-2--x----2---x---2--x-----x---------------|

Parte 2 de 2
  B7M              D7M/E
E|----x--------x---9--x--9---9-x------------|
B|-4--x--4---4-x---7--x--7---7-x------------|
G|-3--x--3---3-x---7--x--7---7-x------------|
D|-4--x--4---4-x------x--------x------------|
A|-2--x----2---x------x--------x------------|
E|----x--------x---0--x----0---x------------|

[Pré-Refrão]

Em7(9)     A7(13)
       Mia,
           D7M(9)    B7(13-)
arranha o céu
Em7(9)     A7(13)
       Mia,       
        D7M(9)  C#7
Lua de mel ao léu, well

Parte 1 de 4
  Em7(9)           A7(13)
E|----x--------x------x--------x------------|
B|-7--x--7---7-x---7--x--7---7-x------------|
G|-7--x--7---7-x---6--x--6---6-x------------|
D|-5--x--5---5-x---5--x--5---5-x------------|
A|-7--x----7---x------x--------x------------|
E|----x--------x---5--x----5---x------------|

Parte 2 de 4
  D7M(9)           B7(13-)
E|----x--------x------x--------x------------|
B|-5--x--5---5-x---8--x--8---8-x------------|
G|-6--x--6---6-x---8--x--8---8-x------------|
D|-4--x--4---4-x---7--x--7---7-x------------|
A|-5--x----5---x------x--------x------------|
E|----x--------x---7--x----7---x------------|

Parte 3 de 4
   Em7(9)          A7(13)
E|----x--------x------x--------x------------|
B|-7--x--7---7-x---7--x--7---7-x------------|
G|-7--x--7---7-x---6--x--6---6-x------------|
D|-5--x--5---5-x---5--x--5---5-x------------|
A|-7--x----7---x------x--------x------------|
E|----x--------x---5--x----5---x------------|

Parte 4 de 4
  D7M(9)           C#7
E|----x--------x------x----------x----------|
B|-5--x--5---5-x---9--x--9----9--x----------|
G|-6--x--6---6-x---10-x--10---10-x----------|
D|-4--x--4---4-x---9--x--9----9--x----------|
A|-5--x----5---x------x----------x----------|
E|----x--------x---9--x-----9----x----------|

[Refrão]

F#7M                E/F#  C7(9)   B7M
     Dois gatos pingados fora da lei
          D7M/E          F#7M
Ela é a rainha, eu o rei
             E/F#  C7(9)   B7M
Farra no telhado  fora da lei
      D7M/E
Tudo bem

F#7M             E/F#  C7(9)   B7M
     Sobe desce muros fora da lei
     D7M/E            F#7M   
Ela sai por onde entrei
             E/F#   C7(9)   B7M  D7M/E
Gritos e sussurros fora da lei

Parte 1 de 2
   F#7M            E/F#  C7(9)
E|----x--------x------x-----x---------------|
B|-2--x--2---2-x---0--x--3--x---------------|
G|-3--x--3---3-x---1--x--3--x---------------|
D|-3--x--3---3-x---2--x--2--x---------------|
A|----x--------x------x--3--x---------------|
E|-2--x----2---x---2--x-----x---------------|

Parte 2 de 2
  B7M              D7M/E
E|----x--------x---9--x--9---9-x------------|
B|-4--x--4---4-x---7--x--7---7-x------------|
G|-3--x--3---3-x---7--x--7---7-x------------|
D|-4--x--4---4-x------x--------x------------|
A|-2--x----2---x------x--------x------------|
E|----x--------x---0--x----0---x------------|

[Final] F#7M
Página 1 / 1

Letras e título
Acordes e artista

resetar configurações
OK