Cifra Club

Aprenda

Fora da Lei

Ed Motta

Tab de baixo: Principal
PARTE [A]
   G7+                F/G            G7+                 F/G
G|-----------------|---------------|------------------|--------------|
D|-5--5------2—5-5-|--5-5-5--------|-----5------2-5-5-|--5-5-5-------|
A|---------5-------|--------5-5-5--|----------5-------|--------5-5-5-|
E|-------3---------|---------------|--3-----3---------|--------------|

   G7+                F/G            G7+                 F/G
G|-----------------|---------------|------------------|--------------|
D|----5------2—5-5-|--5-5-5--------|-----5------2-5-5-|--5-5-5-------|
A|---------5-------|--------5-5-5--|----------5-------|--------5-5-5-|
E|-3-----3---------|---------------|--3-----3---------|--------------|

VOCAL
   G7+                F/G            G7+                 F/G
G|-----------------|---------------|------------------|--------------|
D|----5------2—5-5-|--5-5-5--------|-----5------2-5-5-|--5-5-5-------|
A|---------5-------|--------5-5-5--|----------5-------|--------5-5-5-|
E|-3-----3---------|---------------|--3-----3---------|--------------|

   G7+                F/G            C7+                 F/G
G|-----------------|---------------|------------------|--------------|
D|----5------2—5-5-|--5-5-5--------|----------------3-|--3—-3—-3—-3--|
A|---------5-------|--------5-5-5--|--3--3--3---------|--------------|
E|-3-----3---------|---------------|----------0-1-3---|--------------|

   G7+                F/G            G7+                 F/G
G|-----------------|---------------|------------------|--------------|
D|-5--5------2—5-5-|--5-5-5--------|-----5------2-5-5-|--5-5-5-------|
A|---------5-------|--------5-5-5--|----------5-------|--------5-5-5-|
E|-------3---------|---------------|--3-----3---------|--------------|

   G7+                F/G            C7+                 F/G
G|-----------------|---------------|------------------|--------------|
D|----5------2—5-5-|-5-5-5---------|----------------3-|--3—-3—-3—-3--|
A|---------5-------|-------5-5-5-4-|--3--3--3---------|--------------|
E|-3-----3---------|---------------|----------0-1-3---|--------------|

PARTE [B]
  Fm7               Bb7             Eb7             C7
G|----------------|---3-----------|---------------|------------------|
D|-3-3----3-------|-3-------------|-1—1---1-------|--------3-----1-2-|
A|------3---3-2-1-|-----1-1-1-1-3-|-----1---1-2-3-|-3-3—-3---3-1-----|
E|----------------|---------------|---------------|------------------|

   Fm7               Bb7             Eb7             D7
G|----------------|---3-----------|----------------|-------7---------|
D|-3-3----3-------|-3-------------|-1-1----1-------|-----5-------3-4-|
A|------3—--3-2-1-|-----1-1-1-1-3-|------1---3-4-5-|-5-5-----5-5-----|
E|----------------|---------------|----------------|-----------------|

PARTE [C] REFRÃO
   G7+             F/G     Db7     C                Gm/F  
G|----------------|--------------|----------------|----------------|
D|-5--5-5---------|-5--5-5-------|----------------|-3---3--3-2-3-3-|
A|--------5-7-5-7-|--------5-5-3-|-3-3--3---------|----------------|3X
E|----------------|--------------|--------0-1-3-1-|----------------|

   G7+             F/G     Db7     C                Gm/F  
G|----------------|--------------|----------------|--------------|
D|-5--5-5---------|-5--5-5-------|----------------|-3--3--3—-3/--|
A|--------5-7-5-7-|--------5-5-3-|-3-3--3---------|--------------|
E|----------------|--------------|--------0-1-3-1-|--------------|

G|--------|--------|--------|--------|
D|--------|--------|--------|--------|
A|--------|--------|--------|--------|
E|--------|--------|--------|--------|

   G7+                F/G            G7+                 F/G
G|-----------------|---------------|------------------|---------|
D|-5--5------2—5-5-|--5-5-5--------|-----5------2-5-5-|---------|
A|---------5-------|--------5-5-5--|----------5-------|---------|
E|-------3---------|---------------|--3-----3---------|---------|

REPETE A, B, C, PAUSA PARA O BAIXO 8 COMPASSOS (VOCALIZE) PARTE B e C



Essa musica tem uma linha de baixo muito boa.
Mas só poderia ser boa, pois o baixista da gravação é ninguém,
Menos que LIMINHA.
Aos amantes da boa musica independente do estilo!
NUMINOINAUM NA VEIA!



_______________________________________________________
Contribuição: LUIZ CARLOS(luiznnn@hotmail.com)
Composição de Ed Motta / Rita Lee
22.824 exibições

0 comentários

Mostrar mais comentários

Conseguiu tocar?

1 Tocaram 0 Ainda não

Grave um vídeo tocando Fora da Lei e mande pra gente!

00:00 / 00:00
outros vídeos desta música
repetir qualidade Automático
Outros vídeos desta música
00:00 / 00:00
Automático

Cifra Club Pro

Aproveite o Cifra Club com benefícios exclusivos e sem anúncios
7 dias grátis
Cifra Club Pro
Aproveite o Cifra Club com benefícios exclusivos e sem anúncios
7 dias grátis
OK