Cifra Club

Aprenda

Tem Espaço na Van

Ed Motta

Tab de baixo: Principal
esta cifra estara dividia em partes A, B e C, para melhor intender esta cifra sugere-se escutar a musica enquanto se aprende as fras OK, então vamos la !!

PARTE A:

E-5--5--55---------5-5-5---5----5-5-5----------------------------------------------------------
A-----3---5--55-7-3---3-543--7---3-3----7--3--5------------------------------------------------
D----------------------------------------------------------------------------------------------
G----------------------------------------------------------------------------------------------

PARTE B:

E-5-55-55--------------------------------------------------------------------------------------
A--------5-7-----------------------------------------------------------------------------------
D------------5---------------------------------------------------------------------------------
G----------------------------------------------------------------------------------------------

PARTE C:

E-33--33---765--5------------------------------------------------------------------------------
A----------------8-887-77-5/7-3----------------------------------------------------------------
D----------------------------------------------------------------------------------------------
G----------------------------------------------------------------------------------------------

Estrutura:
introdução  ]
               parte A
refrão      ]

verso 1     ]  parte B

refrão      ]  parte A

verso 2     ]  parte C

refrão      ]  parte A

verso 1     ]  parte B

verso 2     ]  parte C ate o final 

Composição de Ed Motta / Seu Jorge
Colaboração e revisão:
  • David Oliveira
5.748 exibições

0 comentários

Mostrar mais comentários

Conseguiu tocar?

0 Tocaram 1 Ainda não

Grave um vídeo tocando Tem Espaço na Van e mande pra gente!

00:00 / 00:00
outros vídeos desta música
repetir qualidade Automático
Outros vídeos desta música
00:00 / 00:00
Automático

Cifra Club Pro

Aproveite o Cifra Club com benefícios exclusivos e sem anúncios
7 dias grátis
Cifra Club Pro
Aproveite o Cifra Club com benefícios exclusivos e sem anúncios
7 dias grátis
OK