Cifra Club

Photograph

Ed Sheeran

Cifra: Principal-simplificada (violão e guitarra)
exibições 51.966
Tom: E (forma dos acordes no tom de C) Capotraste na 4ª casa
Coloque o capotraste nas 5 primeiras cordas e deixe a corda E(grave) solta

Intro
E|----------------------------------------------------|
B|-----1-0-1-----------1-0-1--------------------------|
E|------------0--------------0------------------------|
D|-------------3-2-------------3-2--------------------|
A|----------------------------------------------------|
E|-0---------------0----------------------------------|

E|----------------------------------------------------|
B|-----1-0-1----------1-0-1---------------------------|
E|-----------0--------------0-------------------------|
D|------------3-2------------3-2----------------------|
A|-0-------0-------0------0---------------------------|
E|----------------------------------------------------|

E|----------------------------------------------------|
B|---1-0-1---------1-0-1------------------------------|
E|----------0------------0----------------------------|
D|------------3-2----------3-2------------------------|
A|----------------------------------------------------|
E|-3-----3--------3----3------------------------------| 

E|----------------------------------------------------|
B|---1-0-1--------------------------------------------|
E|----------0-----------------------------------------|
D|------------3-2-------------------------------------|
A|----------------------------------------------------|
E|-1-----1--------1-----------------------------------|

C     Am     G     F

Verso:

           C
Loving can hurt
           Am
Loving can hurt sometimes
             G                     F
But it's the only thing that I know

             C
When it gets hard
                    Am
you know it can get hard sometimes
          G                                F
it is the only thing that makes us feel alive

Pré-Refrão:

Am                           F
We keep this love in a photograph
C                       G
We made these memories for ourselves
          Am
where our eyes are never closing
     F
our hearts are never broken
     C                     G
and time's forever frozen still

Refrão:

           C
So you can keep me inside the pocket of your
G
ripped jeans holding me close until our
Am                             F
eyes meet, you won't ever be alone
                        C
Wait for me to come home

           C
Loving can heal
            Am
Loving can mend your soul
             G                       F
And it's the only thing that I know, know

                    C
I swear it will get easier
                            Am
remember that with every piece of ya
             G                                    F
And it's the only thing we take with us when we die

Am                           F
We keep this love in a photograph
C                       G
We made these memories for ourselves
          Am
where our eyes are never closing
     F
our hearts are never broken
     C                     G
and times forever frozen still

           C
So you can keep me inside the pocket of your
G
ripped jeans holding me close until our
Am                           F
eyes meet, you won't ever be alone
           C
And if you hurt me that's ok baby, only
G
words bleed inside these pages you just
Am                               F
hold me and I won't ever let you go

                     Am
Wait for me to come home
                     F
Wait for me to come home
                     C
Wait for me to come home
                     G
Wait for me to come home

            C
Or you can fit me inside the necklace you got when you were
G
sixteen next to your heart beat where I 
Am                                   F
should be, keep it deep within your soul
           C
And if you hurt me well that's ok baby, only
G
words bleed inside these pages you just
Am                               F
hold me and I won't ever let you go

              C
And when I'm away I will remember how you
G                                     Am
kissed me under the lamppost back on sixth Street
                                 F
hearing you whisper through the phone

Wait for me to come home
Acordes para:
    Composição: Ed Sheeran / Johnny McDaid Colaboração e revisão:
    • Thiago Martins
    • Victor Marega

    0 comentários

    mostrar mais comentários
    00:00 / 00:00
    outros vídeos desta música
    repetir qualidade Automático
    Outros vídeos desta música
    00:00 / 00:00
    Automático
    Capítulos
    • Tocando a música
    • Dicas iniciais / Equipamentos
    • Acordes da música
    • Tocando Introdução e Primeira Parte
    • Ensinando Introdução e Primeira Parte
    • Dicas Pré Refrão
    • Tocando Pré Refrão
    • Dicas Finais / Encerramento
    • Ficha Técnica
    OK