An End Has A Start Intro

Editors

tom: E
Tabbed by: -Narcissist-
Email:*


Title song from the new album An End Has A Start. I'll try to tab the rest soon.

Main Riff (you can play this is in any position you like):

Tuning:

e|-------------------------------------------------------------------------------------|
B|--7--2--5--0-----7--5--9--10--------7--2--5--0-----7--5--9--10-----------------------|
G|------------------------------9---------------------------------9--------------------|
D|-------------------------------------------------------------------------------------|
A|-------------------------------------------------------------------------------------|
E|-------------------------------------------------------------------------------------|

Chord:

e|*|
B|--10-10--------------------------------------------------------------------------|
G|--11-11--------------------------------------------------------------------------|
D|---------------------------------------------------------------------------------|
A|---------------------------------------------------------------------------------|
E|---------------------------------------------------------------------------------|
Página 1 / 1

Letras e título
Acordes e artista

resetar configurações
OK