Cifra Club

No

Ednita Nazario

Cifra: Principal (violão e guitarra)
tom: C#m
Intro...

E|------------------------------------------------|
B|------------12--12b14---12----------------------|
G|--/13-----13--13----------13-13b14--11-9-9/8v---|
D|------------------------------------------------|
A|------------------------------------------------|
E|------------------------------------------------|

E|--------------------------------------------------|
B|-----(| legato)----------------12-------------------|
G|------8-9-8-9--11-9-11b13-------11-11b13----------|
D|--------------------------------------------------|
A|--------------------------------------------------|
E|--------------------------------------------------|






verso..


C#m
Ya me liberé
          A
De las cadenas a las que me até
            B
Por serte fiel
                    E            G#m
Por entregarte mi alma y mí libertad
C#m
Ya me envenené
          A
Lo suficiente con tu desnudez
         B
Con aguantar todo el horror
           E        G#m
Que me hiciste soportar



Pre - Coro

     C#m
Y soy yo...nadie más
       A
La que dice que puede aguantar
        F#m
La que puede seguir

Voy a sobrevivir...
 G#m
Y me volveré a levantar



Coro.

C#m
No quiero más de lo mismo
              A
Creyendo que vas a reaccionar
B                                       E            G#m
No voy hacer la que llora y te espera sentada en el sofá
C#m
No quiero noches en vela
              A
Pensando que vas a regresar
B                                     E      G#m
No voy a ser esa pieza del juego que nunca ganara

C#m   , A   , B
No..............

E|-------------------------------------|
B|---------------------12--------------|
G|-------------11b13------11-11b13-----|
D|-------------------------------------|
A|-----/7-6----------------------------|
E|----------9--------------------------|



Verso

Ya me desperté
Del sueño absurdo que me hizo perder
La fe en mí
Dando por hecho que yo era para ti

B|--5--------7-5----|
G|---------------6--|
     Ya se lo que es ir al infierno en donde tu estas
                                  E      G#m
Donde serás el rey de los que no saben llorar

Pre - Coro.

 C#m
Y soy yo, nadie más
        A
La que dice que puede aguantar
         F#m
La que puede seguir

Voy a sobrevivir...
 G#m
Y me volveré a levantar...



Coro.

C#m
No quiero más de lo mismo
              A
Creyendo que vas a reaccionar
B                                       E            G#m
No voy hacer la que llora y te espera sentada en el sofá
C#m
No quiero noches en vela
              A
Pensando que vas a regresar
B                                     E      G#m
No voy a ser esa pieza del juego que nunca ganara


No..............


Solo..


E|--------------------------------------------------------|
B|--------------------------------------------------------|
G|----11b13-11-9--11b13-11-9--11b13-11-9--11b13---11-9----|
D|-----------------------------------------------------11-|
A|--------------------------------------------------------|
E|--------------------------------------------------------|

E|------------------------------------------12-14-12-14b16---|
B|---------------12-12--------------------12-----------------|
G|------9-11b13--------11-9-11--------9-11-------------------|
D|-9-11-----------------------9--9-11------------------------|
A|-----------------------------------------------------------|
E|-----------------------------------------------------------|

E|-----------14-12-12-14b16-14-12---------|
B|--------------------------------14------|
G|----------------------------------------|
D|----------------------------------------|
A|----------------------------------------|
E|----------------------------------------|





Coro.


No quiero más de lo mismo

Creyendo que vas a reaccionar

No voy hacer la que llora y te espera sentada en el sofá

E|---14b16--14-12------|
B|----------------14---|

   C#m
No quiero noches en vela
              A
Pensando que vas a regresar
B                                     E      G#m
No voy a ser esa pieza del juego que nunca ganara



C#m   , A   , B  , E  , G#m
No........................





b = bendin
v = vibrato
/ = slide
00:00 / 00:00
Outros vídeos desta música
Repetir
Outros vídeos desta música
Composição de Amerika / Claudia Brant / Mark Portmann
    • ½ Tom
    • Am
    • Bbm
    • Bm
    • Cm
    • C#m
    • Dm
    • Ebm
    • Em
    • Fm
    • F#m
    • Gm
    • G#m
  • Adicionar à lista

    0 comentários

    Ver todos os comentários

    Conseguiu tocar?

    0 Tocaram 0 Ainda não

    Grave um vídeo tocando No e nos envie!

    Entre para oCifra Club PRO

    Tenha acesso a benefícios exclusivos no App e no Site

    • Chega de anúncios

    • Prioridade de compra em lançamentos

    • Mais recursos no app do Afinador

    • Atendimento Prioritário

    • Descontos nos produtos Cifra Club

    • Ajude a produzir mais conteúdo

    00:00 / 00:00

    Cifra Club Pro

    Aproveite o Cifra Club com benefícios exclusivos e sem anúncios
    Cifra Club Pro
    Aproveite o Cifra Club com benefícios exclusivos e sem anúncios
    OK