Cifra Club

Não tem dia, não tem hora

Edson e Hudson

Cifra: Principal (violão e guitarra)
tom: G
Intro:
e|--0-2-0-----0-2-0~~~--0-2-0----------------------------
B|-------3-3-------3-3-------3-3-5-7-8-10---------------
G|------------------------------------------------------ 
D|------------------------------------------------------
A|------------------------------------------------------
E|------------------------------------------------------

Intro:
e|--0-2-0-----0-2~0~~---0-2-0----------------------------
B|-------3-3-------3-3-------3-3------------------------
G|-------------------------------0h2--------------------  
D|------------------------------------------------------
A|------------------------------------------------------
E|------------------------------------------------------

Introdução: (D A7 G) 2x

 D                         G   C G 
Foi mais uma noite que passou
                        D 
E eu de novo nessa solidão
                           G   C G
Há pouco tempo você esta aqui
                          D
Só pra confundir meu coração.

   Em 
Eu sei aonde está você
   G 
Eu sei aonde te achar
                           D
Mas tenho medo, de me machucar.

   Em        
De ver de novo você vir
   G 
Chegar, me amar, me seduzir.
   D            A*
E me deixar
                                                      Refrão
           D
É sempre assim
         Em
Você me ama e vai embora
 G
Não tem dia, não tem hora.
       D       A  
Pra você voltar

           D
É sempre assim
          Em  
Você me traz felicidade
 G
Não tem dia, não tem hora.
     C      G    A    D    
Pra me matar, de saudade.

Repete do início...
                                             A    D
Final repete Refrão 2x e acaba ... D Em G de Saudade.

A* = Bate 3x (Desce, sobe e desce) preparando para o refrão
00:00 / 00:00
Outros vídeos desta música
Repetir
Outros vídeos desta música
Compositor não encontrado.
Colaboração e revisão:
  • renan silva
  • Adriano Pontes
112.533 exibições
    • ½ Tom
    • A
    • Bb
    • B
    • C
    • Db
    • D
    • Eb
    • E
    • F
    • F#
    • G
    • Ab
  • Adicionar à lista

    0 comentários

    Ver todos os comentários

    Entre para oCifra Club PRO

    Tenha acesso a benefícios exclusivos no App e no Site

    • Chega de anúncios

    • Prioridade de compra em lançamentos

    • Mais recursos no app do Afinador

    • Atendimento Prioritário

    • Descontos nos produtos Cifra Club

    • Ajude a produzir mais conteúdo

    00:00 / 00:00

    Cifra Club Pro

    Aproveite o Cifra Club com benefícios exclusivos e sem anúncios
    Cifra Club Pro
    Aproveite o Cifra Club com benefícios exclusivos e sem anúncios
    OK