Cifra Club

Começar de Novo

Eduardo Costa

Cifra: Principal
exibições 138.840
Tom: G
Intro: 

E|--10-8-7--8-7-7----------------7----------------------|
B|--------10----------------8-10---10-8-7-8/10-8-8-8-7-5|
G|-7----------------------7------------------------9-7-5|
D|--------------------7/9-------------------------------|
A|----------------5-7-----------------------------------|
E|------------------------------------------------------|

E|-----------------------------7----------------------8-7-|
B|------------------------8-10---10-----10-8-7-8-8/10-----|
G|-------------7----7-9-9---------------------------------|
D|-7-9-10-9-10---10-----------------7-9-------------------|
A|--------------------------------------------------------|
E|--------------------------------------------------------|

G                 D/F#                Em Em/D
Solidão a gente aguenta, mas desprezo não.
C             G/B                   D4  D
Deixa a alma ferida e cicatriz no coração.
                   D9-               Em
Estou cansado de fingir que está tudo bem.
              C                G
Você diz que ama e não ama ninguém.
              A4/7           D  D7
Sempre foi a dona da situação.


G                  D/F#                 Em  Em/D
Vou dar a volta por cima e Vou virar o jogo.
C                 G/B               D4 D
Arrancar o mal do peito e atirar no fogo.
                   D9-               Em
Vamos ver quem é melhor. Quem aguenta mais.
          C                  G\B
Você vai saber do que eu sou capaz.
              D                 G    D7
Vou mudar de vida e começar de novo.


       G           D/F#
Acostumada a maltratar...
         Em           Em/D
Vai aprender o que chorar.
             C       Am7           G     D7
Quando a saudade invadir seu coração.
            G          D/F#
Vai ter vontade de morrer...
            Em            Em/D
Sentir na pele o que é sofrer.
             C             D        G
De hoje em diante eu vou agir pela razão.

Solo

E|----------------------7-7-7----------------------|
B|---8-7-8/10-8-8-7-7h8--------10-8-8/10-8-8-7-7h8-|
G|-7-----------------------------------------------|
D|-------------------------------------------------|
A|-------------------------------------------------|
E|-------------------------------------------------|

E|-----------------------------------------------------------8-7-|
B|-8-7---7-8---7-8--------------------------8-10-8-7-7/8---------|
G|-----9-----7---------------7--------------9------------7/9-----|
D|-----------------10-7-9/10---10-9-7-10-10----------------------|
A|---------------------------------------------------------------|
E|---------------------------------------------------------------|
Acordes para:

    0 comentários

      mostrar mais comentários

      Conseguiu tocar?

      9tocaram2ainda não

      Grave um vídeo tocando Começar de Novo e mande pra gente!

      00:00 / 00:00
      outros vídeos desta música
      repetirqualidadeautomática
      Outro vídeos desta música
        00:00 / 00:00
        automática
        OK