Cifra Club

Fui Dando Porrada (part. Clayton e Romário)

Eduardo Costa

Cifra: Principal (violão e guitarra)
tom: G
[Intro] Em  Bm  C  D7 
        G  D7  G  D 
        C  D7  G  D

[Solo Intro]

Parte 1
E|-2-2---2-2h3--3-3-3/5-5-5/7-7/10-10------------------|
B|-3-3-5-----------------------------------------------|
G|-----------------------------------------------------|
D|-----------------------------------------------------|
A|-----------------------------------------------------|
E|-----------------------------------------------------|

Parte 2
E|-10-10-10-10-8h10-10-10---8-7-8-7-5-3----------------|
B|-----------------------------------------------------|
G|-----------------------------------------------------|
D|-----------------------------------------------------|
A|-----------------------------------------------------|
E|-----------------------------------------------------|

Parte 3
E|--3-3-3-2h3---2-0------------------------------------|
B|------------------3h5--3-3---------------------------|
G|-----------------------------------------------------|
D|-----------------------------------------------------|
A|-----------------------------------------------------|
E|-----------------------------------------------------|

Parte 4
E|------------3--3-3-3-3-3--3-3-3-3-2--2/5-5-----------|
B|--3-5-5/7--------------------------------------------|
G|-----------------------------------------------------|
D|-----------------------------------------------------|
A|-----------------------------------------------------|
E|-----------------------------------------------------|

Parte 5
E|--3-2--------2-2h3---2----------2-3-5-3--------------|
B|------5-3-5------------5-5--3-5-----------3h5-3------|
G|------------------------------------------------5-2-4|
D|-----------------------------------------------------|
A|-----------------------------------------------------|
E|-----------------------------------------------------|

G
Amor eu já tentei
         D
Mas não esqueço
C                        G   D
Com outra sou um homem infeliz
G
Eu já estou pagando
        D
Um alto preço
C
Pra desfazer o mal
           G   D
Que eu te fiz
    Em
Por isso não desligue
      Bm      C
O telefone me dê mais uma
  D7            G   D
Chance de explicar
   Em                        Bm
Te vendo conversar com outro homem
C                       D
Senti tanta vontade de brigar

          Em
Fui dando porrada
Quebrando tudo
       Bm
Te rebaixando, ele defendendo
         C
O povo gritando,mas eu fiz tudo
        G   D
Foi por amor
              Em
Pois quem ama tanto

Ciume muito, transforma
    Bm
Em pranto, eu te confesso
            C
Que não sou santo
          D7        G   D
Mas me perdoe por favor

Em              Bm
Vai me chame de volta
          C
Mê de uma chance
   D7
De provar
               G   D
Quem me arrependi
Em                 Bm
Vai! Diz que não importa
            C
Que já esqueceu
        D7                G
E ainda quer viver só para mim
            C
Que já esqueceu
        D
E ainda quer viver
        G   
Só para mim

[Solo] Em  Bm  C  D7  G
       Em  Bm  C  D7  G
       D7  G

E|-3---3-3-3-2-2/3-3-3-3-3/5-5/7-7/10-10-10-10--10...-10-10|
B|---------------------------------------------------------|
G|---------------------------------------------------------|
D|---------------------------------------------------------|
A|---------------------------------------------------------|
E|---------------------------------------------------------|

E|-10/12--12-12-10-8-10-8-7-8-7-----------7-10-10--10-10-10|
B|-----------------------------10-10-8-10------------------|
G|---------------------------------------------------------|
D|---------------------------------------------------------|
A|---------------------------------------------------------|
E|---------------------------------------------------------|

E|--10-10-8-7-7-7---7--7--7-7-7/5-5/3-3/2-2h3-2-2-2--0-0---|
B|----------------8---8--8-8----------------------------3-1|
G|---------------------------------------------------------|
D|---------------------------------------------------------|
A|---------------------------------------------------------|
E|---------------------------------------------------------|

E|---------------------2h3-2-0-----------------------------|
B|0---------------------------3----------------------------|
G|-2-2/4-4-4/2~--0-0---------------------------------------|
D|---------------------------------------------------------|
A|---------------------------------------------------------|
E|---------------------------------------------------------|
00:00 / 00:00
Outros vídeos desta música
Repetir
Outros vídeos desta música
Composição de Jairo Goes
199.653 exibições
    • ½ Tom
    • A
    • Bb
    • B
    • C
    • Db
    • D
    • Eb
    • E
    • F
    • F#
    • G
    • Ab
  • Adicionar à lista

    0 comentários

    Ver todos os comentários

    Conseguiu tocar?

    28 Tocaram 10 Ainda não

    Grave um vídeo tocando Fui Dando Porrada (part. Clayton e Romário) e nos envie!

    Entre para oCifra Club PRO

    Tenha acesso a benefícios exclusivos no App e no Site

    • Chega de anúncios

    • Prioridade de compra em lançamentos

    • Mais recursos no app do Afinador

    • Atendimento Prioritário

    • Descontos nos produtos Cifra Club

    • Ajude a produzir mais conteúdo

    00:00 / 00:00

    Cifra Club Pro

    Aproveite o Cifra Club com benefícios exclusivos e sem anúncios
    Cifra Club Pro
    Aproveite o Cifra Club com benefícios exclusivos e sem anúncios
    OK