Cifra Club

Me Engana Que Eu Gosto

Eduardo Costa

Cifra: Principal (violão e guitarra)
tom: E
(intro) E B B7 A

Solo intro

E|-------16br-------------------|------16br-----------------14h-17h-|
B|---17----------17-------------|--17----------17-------------------|
G||*------------------16~--------|------------------16~--------------|
D||*-----------------------------|-----------------------------------|
A|------------------------------|-----------------------------------|
E|------------------------------|-----------------------------------|

--14h-16-14~--------------------|-------------------------|
----------------17--16------14--|----------14--16~--------|
--------------------------------|--16---------------------|
--------------------------------|-------------------------|
--------------------------------|-------------------------|
--------------------------------|-------------------------|

------14h-16p-14-----------------|------14h-16p-14----------------------|
--16--------------16-------------|--16--------------16-----------17h-19-|
----------------------14~--------|----------------------14~-------------|
---------------------------------|--------------------------------------|
---------------------------------|--------------------------------------|
---------------------------------|--------------------------------------|

--------------------------------|--------------------------------||
--16h-19-17~------------16h-17h-|--16-14---------14----16~-------||
--------------------------------|--------16---------------------*||
--------------------------------|-------------------------------*||
--------------------------------|--------------------------------||
--------------------------------|--------------------------------||
br= bend reverse
h = hammer on
p = pull off
~ = vibrato


E
Diga que você não vai embora,
                             B
E que esse adeus é uma mentira,
B7
Diga que você ainda me adora e
                         A    E
Que esse corpo ainda é meu,
E
Diga, simplesmente me diga,
           B
O que eu preciso ouvir,
F#
Diga qualquer coisa que me toca,
                             B
Me provoca sem tentar fugir.

E
Diga que é de mim que você gosta e
                        B
Que faço parte do seu jogo,
B7
Diga que em mim você aposta e
                    A    E
Põe a sua mão no fogo,
E
Diga, simplesmente me diga que esse amor
          B
É pra valer.
F#
Diga que sem mim você não presta,
                     B
Se desespera e quer morrer.

(refrão)
       E
Me leva pra cama,
                            B
Me ama e me engana que eu gosto.
B7
Me peça mais um beijo,
                     E      B
E mata o meu desejo que eu gosto
00:00 / 00:00
Outros vídeos desta música
Repetir
Outros vídeos desta música
Composição de Fátima Leão / Zezé Di Camargo
Colaboração e revisão:
  • Andre Pereira
  • luiz braga
  • joao henrike
24.048 exibições
    • ½ Tom
    • A
    • Bb
    • B
    • C
    • Db
    • D
    • Eb
    • E
    • F
    • F#
    • G
    • Ab
  • Adicionar à lista

    0 comentários

    Ver todos os comentários

    Conseguiu tocar?

    4 Tocaram 0 Ainda não

    Grave um vídeo tocando Me Engana Que Eu Gosto e nos envie!

    Entre para oCifra Club PRO

    Tenha acesso a benefícios exclusivos no App e no Site

    • Chega de anúncios

    • Prioridade de compra em lançamentos

    • Mais recursos no app do Afinador

    • Atendimento Prioritário

    • Descontos nos produtos Cifra Club

    • Ajude a produzir mais conteúdo

    00:00 / 00:00

    Cifra Club Pro

    Aproveite o Cifra Club com benefícios exclusivos e sem anúncios
    Cifra Club Pro
    Aproveite o Cifra Club com benefícios exclusivos e sem anúncios
    OK