Cifra Club

Namorando o Teu Sorriso

Eduardo Costa

Cifra: Principal (violão e guitarra)
tom: E
E                          A     E                    B  
 Eu vivo namorando o seu sorriso igual o mar namora a lua 
E                         B                           E  
Eu vivo namorando o seu sorriso igual o mar namora a lua
E                          A     E                    B  
 Eu vivo namorando o seu sorriso igual o mar namora a lua 
E                         B                           E  
Eu vivo namorando o seu sorriso igual o mar namora a lua

E             B      A                          E
 Feito uma criança quando ganha o primeiro brinquedo
             B
Quer tocar mas sente medo
A                     E
E chora toda vez que ama
                      B
E chora toda vez que ama
                      E
E chora toda vez que ama

B                                  A
 Assim... Deus nunca amei ninguém assim
                              E
Paixão que tá botando fogo em mim
                              B
É de tanto amor que eu fico assim
B                              A
 Assim Deus nunca amei ninguém assim
                              E
Paixão que tá botando fogo em mim
                              B
É de tanto amor que eu fico assim

A                     E
 E chora toda vez que ama
                      B
E chora toda vez que ama
                      E
E chora toda vez que ama

[Solo]

E|-5-5--7-7--9---9---11-11---11-----------------------|
B|-7-7--9-9--10--10--12-12---12-----------------------|
G|----------------------------------------------------|
D|----------------------------------------------------|
A|----------------------------------------------------|
E|----------------------------------------------------|

E|-14-14--12-12--11-11--9--9---7--9----9--------------|
B|-15-15--14-14--12-12--10-10--9--10---10-------------|
G|----------------------------------------------------|
D|----------------------------------------------------|
A|----------------------------------------------------|
E|----------------------------------------------------|

E|-12-12--11-11--9--9---7-7--5--7---7-----------------|
B|-14-14--12-12--10-10--9-9--7--9---9-----------------|
G|----------------------------------------------------|
D|----------------------------------------------------|
A|----------------------------------------------------|
E|----------------------------------------------------|

E|-11-11--9--9---7-7--5-5--3--5---5-------------------|
B|-12-12--10-10--9-9--7-7--5--7---7-------------------|
G|----------------------------------------------------|
D|----------------------------------------------------|
A|----------------------------------------------------|
E|----------------------------------------------------|

B                                  A
 Assim... Deus nunca amei ninguém assim
                              E
Paixão que tá botando fogo em mim
                              B
É de tanto amor que eu fico assim
B                              A
 Assim Deus nunca amei ninguém assim
                              E
Paixão que tá botando fogo em mim
                              B
É de tanto amor que eu fico assim

A                     E
 E chora toda vez que ama       
                      B  
E chora toda vez que ama         
                      E  
E chora toda vez que ama

A                     E
 E chora toda vez que ama       
                      B  
E chora toda vez que ama         
                      E  
E chora toda vez que ama

E                         A       E
Eu vivo namorando o seu sorriso
00:00 / 00:00
Outros vídeos desta música
Repetir
Outros vídeos desta música
Compositor não encontrado.
Colaboração e revisão:
  • Anderson Souza
  • Jhone Ferreira
23.701 exibições
    • ½ Tom
    • A
    • Bb
    • B
    • C
    • Db
    • D
    • Eb
    • E
    • F
    • F#
    • G
    • Ab
  • Adicionar à lista

    0 comentários

    Ver todos os comentários

    Conseguiu tocar?

    2 Tocaram 2 Ainda não

    Grave um vídeo tocando Namorando o Teu Sorriso e nos envie!

    Entre para oCifra Club PRO

    Tenha acesso a benefícios exclusivos no App e no Site

    • Chega de anúncios

    • Prioridade de compra em lançamentos

    • Mais recursos no app do Afinador

    • Atendimento Prioritário

    • Descontos nos produtos Cifra Club

    • Ajude a produzir mais conteúdo

    00:00 / 00:00

    Cifra Club Pro

    Aproveite o Cifra Club com benefícios exclusivos e sem anúncios
    Cifra Club Pro
    Aproveite o Cifra Club com benefícios exclusivos e sem anúncios
    OK