Desert Song

Edward Sharpe And The Magnetic Zeros

tom: D#
1° parte
        Cm                     Bb F  G#  Cm     Bb F
E|---------------------------------------------------------------|
B|---------------------------------------------------------------|
G|---------------------------------------------------------------|
D|----5--5--5--5--5--5--5--5---3----------5--5--3----------------|
A|---3--3--3--3--3--3--3--3---1----3--6--3--3--1---3-------------|
E|--------------------------------1--4------------1--------------|

      Cm          Bb F G#  Cm        Bb F   Cm
E|---------------------------------------------------------------|
B|---------------------------------------------------------------|
G|---------------------------------------------------------------|
D|----5--5--5--5--3---------5--5-----3------5--5-----------------|
A|---3--3--3--3--1--3--6--3--3------1---3--3--3------------------|
E|-----------------1--4---------------1--------------------------|

(1° parte)

Cm        Bb F G#        Cm    Bb   F      Cm
I was born the devil's sun
           Bb  F  G#   Cm
Yes my dad, he gave my name
Bb    F     Cm
No my mama keeps saying

(2° Parte)
Eb
Run to the desert
Bb                    F
You will see all that you need to see
Eb
Run to the desert
Bb                    F
You will be all that you need to be

Refrão
Cm   Gm    Gm7 F
Página 1 / 1

Letras e título
Acordes e artista

resetar configurações
OK