Herzdieb

Eisbrecher

Composição de: Alexander Wesselsky / Noel Pix
tom: G
Chorus:

E|---------------------------------------|
B|---------------------------------------|
G|---------------------------------------|
D|10-10-10-10-10-10-10-10-8-8-8-8-8-8-8-8| x2
A|10-10-10-10-10-10-10-10-8-8-8-8-8-8-8-8|
D|10-10-10-10-10-10-10-10-8-8-8-8-8-8-8-8|

E|-------------------------------------------------------------------------------|
B|-------------------------------------------------------------------------------|
G|-------------------------------------------------------------------------------|
D|6-6-6-6-6-6-6-6-8-8-8-8-8-8-8-8-10-10-10-10-10-10-10-10-12-12-12-12-12-12-12-12|
A|6-6-6-6-6-6-6-6-8-8-8-8-8-8-8-8-10-10-10-10-10-10-10-10-12-12-12-12-12-12-12-12|
D|6-6-6-6-6-6-6-6-8-8-8-8-8-8-8-8-10-10-10-10-10-10-10-10-12-12-12-12-12-12-12-12|

Bridge:

E|---------------------------------|
B|---------------------------------|
G|10-10-10-10-9-8-10-10-10-10-9-8-8|
D|10-10-10-10-9-8-10-10-10-10-9-8-8| x2
A|8--8--8--8--7-6-8--8--8--8--7-6-6|
D|---------------------------------|

E|---------------------------------------------------------------|
B|---------------------------------------------------------------|
G|---------------------------------------------------------------|
D|6-6-6-6-6-6-6-6-5-5-5-5-5-5-5-5-8-8-8-8-8-8-8-8-8-8-8-8-8-8-8-8|
A|6-6-6-6-6-6-6-6-5-5-5-5-5-5-5-5-8-8-8-8-8-8-8-8-8-8-8-8-8-8-8-8|
D|6-6-6-6-6-6-6-6-5-5-5-5-5-5-5-5-8-8-8-8-8-8-8-8-8-8-8-8-8-8-8-8|

Chorus:

E|---------------------------------------|
B|---------------------------------------|
G|---------------------------------------|
D|10-10-10-10-10-10-10-10-8-8-8-8-8-8-8-8| x2
A|10-10-10-10-10-10-10-10-8-8-8-8-8-8-8-8|
D|10-10-10-10-10-10-10-10-8-8-8-8-8-8-8-8|

E|-------------------------------------------------------------------------------|
B|-------------------------------------------------------------------------------|
G|-------------------------------------------------------------------------------|
D|6-6-6-6-6-6-6-6-8-8-8-8-8-8-8-8-10-10-10-10-10-10-10-10-12-12-12-12-12-12-12-12|
A|6-6-6-6-6-6-6-6-8-8-8-8-8-8-8-8-10-10-10-10-10-10-10-10-12-12-12-12-12-12-12-12|
D|6-6-6-6-6-6-6-6-8-8-8-8-8-8-8-8-10-10-10-10-10-10-10-10-12-12-12-12-12-12-12-12|
Página 1 / 1

Letras e título
Acordes e artista

resetar configurações
OK