Crente Que Ora

Eli Soares

Composição de: Eli Soares
tom: E
[Intro]                         [Parte 1]
                   
E|--0--0--0--0--0------------||-----------------------7-7-x-7-x-x-|
B|--5--5--5--5--5--5-5-5-7---||---2-x-x-4-x-x-5-x-x-x-5-5-x-5-x-x-|
G|--6--6--6--6--6--6-6-6-8---||---2-x-x-4-x-x-6-x-x-x-------------|
D|--7--7--7--7--7--7-7-7-9---||-----------------------------------|
A|---------------------------||-----------------------------------|
E|---------------------------||-----------------------------------|

E|------------------7-7-x-7-x-x-x-x-|----------------------7-7-x-7-x-x-|
B|--2-x-x-4-x-x-5-x-5-5-x-5-x-x-x-x-|--2-x-x-4-x-x-5-x-x-x-5-5-x-5-x-x-|
G|--2-x-x-4-x-x-6-x-----------------|--2-x-x-4-x-x-6-x-x-x-------------|
D|----------------------------------|----------------------------------|
A|----------------------------------|----------------------------------|
E|----------------------------------|----------------------------------|
 
E|--4-x-x-x-x-x-x-x-4-x-x-x-x-------|----------------------7-7-x-7-x-x-|
B|--7-x-x-x-x-x-x-x-6-x-x-7-x-9-x-x-|--2-x-x-4-x-x-5-x-x-x-5-5-x-5-x-x-|
G|----------------------------------|--2-x-x-4-x-x-6-x-x-x-------------|
D|----------------------------6-x-x-|----------------------------------|
A|----------------------------------|----------------------------------|
E|----------------------------------|----------------------------------|
 
E|------------------7-7-x-7-x-x-x-x-|----------------------7-7-x-7-x-x-|
B|--2-x-x-4-x-x-5-x-5-5-x-5-x-x-x-x-|--2-x-x-4-x-x-5-x-x-x-5-5-x-5-x-x-|
G|--2-x-x-4-x-x-6-x-----------------|--2-x-x-4-x-x-6-x-x-x-------------|
D|----------------------------------|----------------------------------|
A|----------------------------------|----------------------------------|
E|----------------------------------|----------------------------------|

                                      [Parte 2]
E|--4-x-x-x-x-x-x-x-4-x-x-x----------||------------------------------------|
B|--7-x-x-x-x-x-x-x-6-x-x-7----------||----------------------5-(x)-2-------|
G|-----------------------------------||------2----4--x-4-5-6---------(x)-2-|
D|-----------------------------------||------4--x-4------------------------|
A|-----------------------------------||------------------------------------|
E|-----------------------------------||---x--------------------------------|

E|-----------------------------------|
B|---------------------5-(x)-2-------|
G|-----2----4--x-4-5-6---------(x)-2-|
D|-----4--x-4------------------------|
A|-----------------------------------|
E|--x--------------------------------|

E|-----------------------------------------|
B|---------------------------5-(x)-2-------|
G|-----------2----4--x-4-5-6---------(x)-2-|
D|--(2)h-(4)-4--x-4------------------------|
A|-----------------------------------------|
E|-----------------------------------------|

   [Parte 3]
E|--4-L-x-x-x-x-x-x-4-x-x-x-x--------||---4----------------|
B|--7-L-x-x-x-x-x-x-6-x-x-7-x-9-L-x--||---2----------------|
G|----------------------------------*||*--2----------------|
D|----------------------------6-L-x-*||*--2----------------|
A|-----------------------------------||--------------------|
E|-----------------------------------||--------------------|
                 
E|--4----------------|--6----------------|--6-----------------|
B|--2----------------|--4----------------|--4-----------------|
G|--2----------------|--4----------------|--4-----------------|
D|--2----------------|--4----------------|--4-----------------|
A|-------------------|-------------------|--------------------|
E|-------------------|-------------------|--------------------|

[Parte 4]
           
E|---------------------------------|------------------------|
B|---2-L-x-4-x-x-5-L-x-7-x-x--9----|--L---------------------|
G|---2-x-x-4-L-x-6-x-x-8-L-x-11----|--L---------------------|
D|---2-----4-----7-----9------9----|--L---------------------|
A|---------------------------------|------------------------|
E|---------------------------------|------------------------|

E|-------------------------------|-----------7--x-9--L\-----|
B|--2-L-x-4-x-x-5-L-x-7-x-x-7----|--L-----------------------|
G|--2-x-x-4-L-x-6-x-x-8-L-x-6----|--L--------4--x-6--L\-----|
D|--2-----4-----7-----9----------|--------------------------|
A|-------------------------------|--------------------------|
E|-------------------------------|--------------------------|

[Parte 5]

E|---0--0--0--0--0--0--0--0--|--0--0--0--0--0--------2-L-L-|
B|---2--2--2--2--2--2--2--2--|--2--2--2--2--2--5-2-5-------|
G|---2--2--2--2--2--2--2--2--|--2--2--2--2--2--------------|
D|---------------------------|-----------------------------|
A|---------------------------|-----------------------------|
E|---------------------------|-----------------------------|
                
E|--4--4--4--4--4--4--4--4--|--4--4--4--4--4--4---4-7-L-L--|
B|--4--4--4--4--4--4--4--4--|--4--4--4--4--4----7----------|
G|--4--4--4--4--4--4--4--4--|--4--4--4--4--4---------------|
D|--------------------------|------------------------------|
A|--------------------------|------------------------------|
E|--------------------------|------------------------------|
 
 [Parte 6]

E|---0--0--0--0--0--0--0--0--|--0--0--0--0--0--------2-L-L-|
B|---2--2--2--2--2--2--2--2--|--2--2--2--2--2--5-2-5-------|
G|---2--2--2--2--2--2--2--2--|--2--2--2--2--2--------------|
D|---------------------------|-----------------------------|
A|---------------------------|-----------------------------|
E|---------------------------|-----------------------------|
    
E|--4--4--4--4--4--4--4--4--|------------------------------------|
B|--4--4--4--4--4--4--4--4--|------------------------------------|
G|--4--4--4--4--4--4--4--4--|--9-11-L----------------------------|
D|--------------------------|----------9-11-L--------------------|
A|--------------------------|------------------9-11-L--11s-9-7---|
E|--------------------------|------------------------------------|
Página 1 / 1

Letras e título
Acordes e artista

resetar configurações
OK