Cifra Club

Me Ajude a Melhorar

Eli Soares

Tab de baixo: Principal
exibições 8.711
Introdução 

Parte 01 de 01

G|----------------------------------------------|
D|-------------4------------------------------4-|
A|---------------x-4-4--4-x-4---2h4-------------|
E|-2-2--2-x-2-----------------4-----4-3--2-2----|
B|----------------------------------------------|

G|----------------------------------------------|
D|----------------------------------------------|
A|--------2/4-----------------------------------|
E|-2-x-2----------------------------------------|
B|----------------------------------------------|

Primeira parte

Meu Pai, o mundo insiste em me comprar...

parte 01 de 02

G|----------------------------------------------|
D|------x-------------------7-------------7\----|
A|----------------------------------------------|
E|-2-2----2--4-4--4-4--5-5----5--5-5--5-5-------|
B|----------------------------------------------|

G|----------------------------------------------|
D|------x----4--------------7------7------7-----|
A|----------------------------------------------|
E|-2-2----2----4-4--4--5-5----5-5----5-5--------|
B|----------------------------------------------|

Parte 02 de 02

G|----------------------------------------------|
D|------7----------------------------7----------|
A|----------------------------------------------|
E|-5-5-----2-0-2--4-2-4--5-5-5--5-5----5-5-5-5--|
B|----------------------------------------------|

G|----------------------------------------------|
D|------6---------------------------------------|
A|----------------------------------------------|
E|-4-4----0-------------------------------------|
B|----------------------------------------------|

Refrão 01

Me ajude a melhorar...

Parte 01 de 02

G|----------------------------------------------|
D|------------------------------------------4---|
A|----------------------------------------------|
E|-5-5-0-5-0-5-0-4-4-0-4-0-4-0-2-2-0-2-0-2------|
B|----------------------------------------------|

G|-----------------9----6-----------------------|
D|-------2----5/6----4----0---------------------|
A|-x-2h4---4----------------4-------------------|
E|-----------------------------0----------------|
B|----------------------------------------------|

Parte 02 de 02

G|----------------------------------------------|
D|--------------7--------6---------------------4|
A|--------------------------------------2-------|
E|-5-5-0-5-0-5----0-4-4----0-4-0-4--2h4---2-2---|
B|----------------------------------------------|

G|-------------------6h8------------------------|
D|----------4------6----------------------------|
A|-------------0-4------------------------------|
E|-0-2-0-2----------------x-8\------------------|
B|----------------------------------------------|

Introdução 02

Parte 01 de 01

G|----------------------------------------------|
D|------4---------------------------------4-----|
A|----------------2-4-4--4-x-4-2----------------|
E|-2-2----0h2-0-2----------------4-3-2-2----2-0-|
B|----------------------------------------------|

G|----------------------------------------------|
D|----------------------------------------------|
A|----x-2h4-------------------------------------|
E|-2--------------------------------------------|
B|----------------------------------------------|

Segunda parte 

Meu Pai, o mundo insiste em me comprar...

parte 01 de 03

G|----------------------------------------------|
D|--------------4-------------------------------|
A|----------------------------------------------|
E|-2-2-0-2-0-2----0-4-4-0-4-0-4-5-5-0-5-0-5-----|
B|----------------------------------------------|

G|-------------------------4--------------------|
D|---7--9-7-5/6--------4h6---6------------------|
A|-7------------9-7--4--------------------------|
E|----------------------------------------------|
B|----------------------------------------------|

Parte 02 de 03

G|----------------------------------------------|
D|---------------4-------------------6----------|
A|----------------------------------------------|
E|-2-2--0-2-0-2----2/4--4-4-0-4-0-4----0-5-5----|
B|----------------------------------------------|

G|----------------------------------------------|
D|--------7------7------------------------------|
A|----------------------------------------------|
E|-0-5-5----0-5----0-5-5------------------------|
B|----------------------------------------------|

Parte 03 de 03

G|--------------2---4---2-----------------------|
D|----------2-4---4---4---4-2---2---------------|
A|--------4-------------------4---4-2-----------|
E|-2-0-2------------------------------4-2-4-----|
B|----------------------------------------------|

G|----------------------------------------------|
D|----------------------------------------------|
A|-0-0-0-0--0-0-0-0/3--12-12-12-12--11-11-11-11-|
E|----------------------------------------------|
B|----------------------------------------------|

G|----------------------------------------------|
D|-9-10-11--------------------------------------|
A|---------0------------------------------------|
E|----------------------------------------------|
B|----------------------------------------------|

Refrão 02

Me ajude a melhorar...

Parte 01 de 04

G|----------------------------------------------|
D|-------------6------------------4-------4-----|
A|---------------------3h4----------------------|
E|-5-5-5--4-4----0-4-4-----0-2-2----0-2-2-------|
B|----------------------------------------------|

G|----------6-----------------------------------|
D|--------------------2------------------7------|
A|-2---2/4----0-4-2h4---4-2----0--0-0--0--------|
E|---4----------------------4-------------------|
B|----------------------------------------------|

Parte 02 de 04

G|------------------------------------------7---|
D|--------------6---------4--------4------------|
A|-----------------------------------0-2/4------|
E|-0-4-4-0-4-4-----0-2-2----0-2-2---------------|
B|----------------------------------------------|

G|---------------------------------16----14-----|
D|-------2--------------9---7-7/14----14----14\-|
A|-0-4-4---4-2--0--5/7----7---------------------|
E|----------------------------------------------|
B|----------------------------------------------|

Parte 03 de 04

G|-------------------------------------------6--|
D|-----------------------4-------4--------------|
A|----------------------------------2---2/4-----|
E|-0-4-4-0-4-0-4--0-2-2----0-2-2------4---------|
B|----------------------------------------------|

G|----------------------------------------------|
D|-------2---------7-------7--------------------|
A|-0-4-4---4------------------------------------|
E|------------5-5----0-5-5---0-4-4---0-4-0-4----|
B|----------------------------------------------|

Parte 04 de 04

G|-------------------------------6h8------------|
D|--------4----------4---------6----------------|
A|----------------------2--0-4------------------|
E|-0-2-2----0-2-0-2-----------------------------|
B|----------------------------------------------|
Composição: Eli Soares Colaboração e revisão:
  • Reginaldo Costa

0 comentários

mostrar mais comentários

Conseguiu tocar?

2 tocaram 2 ainda não

Grave um vídeo tocando Me Ajude a Melhorar e mande pra gente!

00:00 / 00:00
outros vídeos desta música
repetir qualidade Automático
Outros vídeos desta música
00:00 / 00:00
Automático
Capítulos
  • Tocando a música
  • Apresentação / Equipamentos
  • Tab - Introdução
  • Tab - Primeira Parte - Parte 1 de 2
  • Tab - Primeira Parte - Parte 2 de 2
  • Dicas Refrão - Introdução 2
  • Tab - Refrão - Parte 1 de 2
  • Tab - Refrão - Parte 2 de 2
  • Tab - Introdução 2
  • Dicas Segunda Parte - Refrão
  • Tab - Segunda Parte - Parte 1 de 3
  • Tab - Segunda Parte - Parte 2 de 3
  • Tab - Segunda Parte - Parte 3 de 3
  • Tab - Segundo Refrão - Parte 1 de 4
  • Tab - Segundo Refrão - Parte 2 de 4
  • Tab - Segundo Refrão - Parte 3 de 4
  • Tab - Segundo Refrão - Parte 4 de 4
  • Encerramento
OK