Cifra Club

Enviai

Eliana Ribeiro

Cifra: Principal (violão e guitarra)
tom: E
[Intro] E  E7M  E  E7M
        A  A4+  A  A4+
        E  E7M  E  E7M
        A  A4+  A  A4+

[Tab - Intro]

   E           E7M  E           E7M 
E|------------------------------------------|
B|-5-5-5-5-5-5-4----5-5-5-5-5-5-4-----------|
G|-4-4-4-4-4-4-4----4-4-4-4-4-4-4-----------|
D|-2-2-2-2-2-2-2----2-2-2-2-2-2-2-----------|
A|------------------------------------------|
E|-0-0-0-0-0-0-0----0-0-0-0-0-0-0-----------|

   A           A4+  A           A4+
E|------------------------------------------|
B|-5-5-5-5-5-5-4----5-5-5-5-5-5-4-----------|
G|-2-2-2-2-2-2-2----2-2-2-2-2-2-2-----------|
D|-2-2-2-2-2-2-2----2-2-2-2-2-2-2-----------|
A|-0-0-0-0-0-0-0----0-0-0-0-0-0-0-----------|
E|------------------------------------------|

   E           E7M  E           E7M 
E|------------------------------------------|
B|-5-5-5-5-5-5-4----5-5-5-5-5-5-4-----------|
G|-4-4-4-4-4-4-4----4-4-4-4-4-4-4-----------|
D|-2-2-2-2-2-2-2----2-2-2-2-2-2-2-----------|
A|------------------------------------------|
E|-0-0-0-0-0-0-0----0-0-0-0-0-0-0-----------|

   A           A4+  A           A4+
E|------------------------------------------|
B|-5-5-5-5-5-5-4----5-5-5-5-5-5-4-----------|
G|-2-2-2-2-2-2-2----2-2-2-2-2-2-2-----------|
D|-2-2-2-2-2-2-2----2-2-2-2-2-2-2-----------|
A|-0-0-0-0-0-0-0----0-0-0-0-0-0-0-----------|
E|------------------------------------------|

[Primeira Parte] 

E             B4
  Vem, espírito de amor
C#m7               A9  
     Reacender a chama que se apagou
E         B4         C#m7
  Reinflamar os corações
                A9
Com línguas de fogo

E             B4
  Vem, espírito de amor
C#m7                  A9
     Recriar o que o mundo destruiu
E       B4            C#m7     A9
  Reavivar em nós o primeiro amor

[Pré-Refrão] 

F#m7(11)          E/G#
         Como em Pentecostes
 A2              A4+(9)
Vem viver em nós
F#m7(11)                E/G#
         Nos unindo a criação
   A2          B
A Deus clamaremos

[Refrão] 

[Tab - Riff]

E|---0-0----0-0-----------------------------|
B|-4---2--4---2-----------------------------|
G|-4---4--4---4-----------------------------|
D|-2---2--2---2-----------------------------|
A|-0---0--0---0-----------------------------|
E|------------------------------------------|

E   B               C#m7       A9
Enviai Teu santo espírito, Senhor
   E   B             A9   Riff
E renovai a face da Terra
E   B               C#m7       A9
Enviai Teu santo espírito, Senhor
   E   B             A9   Riff
E renovai a face da Terra

( E  E7M  E  E7M )
( A  A4+  A  A4+ )

[Primeira Parte] 

E             B4
  Vem, espírito de amor
C#m7                  A9
     Recriar o que o mundo destruiu
E       B4            C#m7     A9
  Reavivar em nós o primeiro amor

[Pré-Refrão] 

F#m7(11)          E/G#
         Como em Pentecostes
 A2
Vem viver em nós
F#m7(11)                E/G#
         Nos unindo a criação
   A2          B
A Deus clamaremos

[Refrão] 

[Tab - Riff]

E|---0-0----0-0-----------------------------|
B|-4---2--4---2-----------------------------|
G|-4---4--4---4-----------------------------|
D|-2---2--2---2-----------------------------|
A|-0---0--0---0-----------------------------|
E|------------------------------------------|

E   B               C#m7       A9
Enviai Teu santo espírito, Senhor
   E   B             A9   Riff
E renovai a face da Terra
E   B               C#m7       A9
Enviai Teu santo espírito, Senhor
   E   B             A9   Riff
E renovai a face da Terra

[Solo] A9  B  C#m7
       A9  B  C#m7

E|------------------------------------------|
B|---5-4------5-4---------------------------|
G|-4-----4--4-----4------6-4h6~-------------|
D|-------------------4-6--------------------|
A|------------------------------------------|
E|------------------------------------------|

E|------------------------------------------|
B|---5-4------5-4---------------------------|
G|-4-----4--4-----4----4b6~-----------------|
D|-------------------6----------------------|
A|------------------------------------------|
E|------------------------------------------|

[Refrão] 

[Tab - Riff]

E|---0-0----0-0-----------------------------|
B|-4---2--4---2-----------------------------|
G|-4---4--4---4-----------------------------|
D|-2---2--2---2-----------------------------|
A|-0---0--0---0-----------------------------|
E|------------------------------------------|

E   B               C#m7       A9
Enviai Teu santo espírito, Senhor
   E   B             A9   Riff
E renovai a face da Terra
E   B               C#m7       A9
Enviai Teu santo espírito, Senhor
   E   B             A9   Riff
E renovai a face da Terra

[Final] A4+(9)  A9
00:00 / 00:00
Outros vídeos desta música
Repetir
Outros vídeos desta música
Composição de Diego Contiero
275.436 exibições
    • ½ Tom
    • A
    • Bb
    • B
    • C
    • Db
    • D
    • Eb
    • E
    • F
    • F#
    • G
    • Ab
  • Adicionar à lista

    0 comentários

    Ver todos os comentários

    Entre para oCifra Club PRO

    Tenha acesso a benefícios exclusivos no App e no Site

    • Chega de anúncios

    • Prioridade de compra em lançamentos

    • Mais recursos no app do Afinador

    • Atendimento Prioritário

    • Descontos nos produtos Cifra Club

    • Ajude a produzir mais conteúdo

    00:00 / 00:00

    Cifra Club Pro

    Aproveite o Cifra Club com benefícios exclusivos e sem anúncios
    Cifra Club Pro
    Aproveite o Cifra Club com benefícios exclusivos e sem anúncios
    OK