Estás Entre Nós

Eliana Ribeiro

Composição de: Nei Fernandes / Paulo Cesar
Esse arranjo começa junto com a voz

G|-------------------------------------------------------|
D|-------------------------------------------------------|
A|--5/1------1/3-----3------5/1------1/3----3------------|
E|------------------------1-----------------------1------|

G|---------------------------------------------------------------|
D|---------------------------------------------------------------|
A|----3---------0/5---1----3----0----5------3-----------0/5------|
E|--3----1—0-----------------------------3-------1—0-------------|

G|-----------------7---7/9------7------------------|
D|----------------------------------9-7------------|
A|-1----3----5--------------------------7---5------|
E|-------------------------------------------------|
Página 1 / 1

Letras e título
Acordes e artista

resetar configurações
OK